Tablatura para Bajo de Silvio Rodriguez: El Mayor
Conexión · Inscripción
Letras y Acordes
Pantalla Completa
Imprimir
Versión Texto
Añadir Favorito
Otras Versiones

Mostrar Diagramas
Desfile Automático
Formato del Texto


El Mayor(BAJ)

Silvio Rodriguez

calidad:
srod0545
AUTOR: Silvio Rodríguez
ALBUM: Dias Y Flores: Song of the Nueva Trova Cubana
Enviado por Alejandro
(0:44')

Verso "Mortales ingredientes..."

G|-----------------|
D|-----------------|
A|-0-2-0-----5-5-0-|
E|-------3-3-------|(x2)

G|-4---4-2---4-4---4-2---4-----------------------|
D|---4-----2-----4-----2---2-4-5-4-2-5---7--7-7--|
A|-------------------------------------5---------|
E|-----------------------------------------------|

G|------------------------------|
D|---7---5-4-2-5---7--7-7---7---|
A|-7-------------5--------7---7-|
E|------------------------------|

Estribillo "Va cabalgando..."

G|-----------------------------------------|
D|---------------5-4-2-------7-7-----------|
A|-5---------5---------5---7-----7---7---7-|
E|---5-3-5-5---5---------5---------5---5---|

G|---------------------------------------------|
D|-----------------2-4-5-4-2-------7-5-4-----7-|
A|-5-0---------5-------------5---7---------7---|
E|-----5-3-5-5---5-------------5---------5-----|

Intervalo

G|-----------------|
D|-----------------|
A|-0-2-0-----5-5-0-|
E|-------3-3-------|(x2)

G|-----------------------------------------|
D|-----------------------5-4-2-5-----------|
A|-2---2-0---0-2---2-0-2---------5---------|
E|---2-----0-----2-----------------5--5-5--|

Verso "Trotar sobre la espuma..."
Estribillo "Va cabalgando..."

Final

G|-------2---|
D|-5-4-2---0-|
A|-----------|
E|-----------|
Este fichero es trabajo propio de su transcriptor y representa su interpretación personal de la canción. El material contenido en esta página es
para exclusivo uso privado, por lo que se prohibe su reproducción o retransmisión, así como su uso para fines comerciales.

© LaCuerda.net · Aviso Legal · Privacidad