Acordes de Guitarra » S »Shakira » Inevitable (Tab)

Inevitable
Shakira

Letras, Acordes y Tabs para Guitarra, Bajo y Ukulele

  • F#           F#sus    B
    Si es cuestión de confesar
                     G#m
    No sé preparar café
                         C#
    Y no entiendo de fútbol
    
    
    F#           F#sus    B
    Creo que alguna vez fui infiel
                            G#m
    Juego mal hasta el parqués
                   C#
    Y jamás uso reloj
    
    
                    F#       C#
    Y para ser más sincero nadie
             D#m C#           B
    Piensa en ti como lo hago yo
    
  • G                       C
    Si es cuestión de confesar
                     Am
    No sé preparar café
                         D
    Y no entiendo de fútbol
    
    
    G                          C
    Creo que alguna vez fui infiel
                            Am
    Juego mal hasta el parqués
                   D
    Y jamás uso reloj
    
    
                   G      D
    Y para ser más franca nadie
             Em  D            C
    Piensa en ti como lo hago yo
    
  • F#                        B
       Si es cuestión de confesar
                    G#m
    No se preparar café
                        C#
    Y no entiendo de fútbol
    
    F#                            B
       Creo que alguna vez fui infiel
                          G#m
    Juego mal hasta el parques
                  C#
    Y jamás uso reloj
    
                   F#     C#
    Y para ser mas franca nadie
           D#m   C#          B
    Piensa en ti como lo hago yo
                             F#
    Aunque te de lo mismo
    
  • G                       C
    Si es cuestión de confesar
                     Am
    No sé preparar café
                         D
    Y no entiendo de fútbol
    
    
    G                          C
    Creo que alguna vez fui infiel
                            Am
    Juego mal hasta el parqués
                   D
    Y jamás uso reloj
    
    
                   G      D
    Y para ser más franca nadie
             Em  D            C
    Piensa en ti como lo hago yo
    
  •   G                C
    Si es cuestión de confesar
    
                    Am
    no se preparar café,
    
                      D
    y no entiendo de foot ball
    
    
         G                C
    Creo que alguna vez fui infiel
    
                          Am
    puedo amar hasta el márquez
    
                     D
    y jamás he sonreído
    
    
    
  • Intro....
    
    G----------------------------------------------
    D----------------------------------------------
    A---------------------------2-----4-/-9-9-9-9--
    E---2-/-7-\-4-/-9---9-\--2-----4---------------
    
    G----------------------------------------------
    D----------------------------------------------
    A--8-8-8-8-6-6-6-6-4-4-4-4-2-------------------
    E----------------------------------------------
                                Aunque te de lo mismo....
    
    G----------------------------------------------
    D----------------------------------------------
    A-----1h2p1h2----------------------------------
    E--2-----------2-------------------------------
    
    Verso
    G----------------------------------------------
    Do--------------------------------------------o
    Ao-------------2---2--2------------4----4\----o
    E---2----2--2------------4---4-4---------------
       
    G----------------------------------------------
    D----------------------------------------------
    A--/-9-9-9-9-8-8-8-8-6-6-6-6-4-4
  • 1er Verso
                       |________8x______|
    C |X---------------|----------------|----------------|X---------------|----------------|
    H |--x-x-x-x-x-x-x-|x-x-x-x-x-x-x-x-|x-x-x-x-x-x-x-X-|--x-x-x-x-x-x-x-|x-x-x-x-x-x-x-X-|
    S |----@-------@---|----@-------@---|----@-------@---|----o-------o---|----o-------o---|
    B |o--------o---o--|o--------o---o--|o--------o----o-|o-------o-o-----|o-------o-o-----|
    
    Coro
    C |X---------------|------------X---|X---------------|----------------|X---------------|
    H |----------------|----------------|----X-X-X-X-X-X-|X-X-X-X---X-----|--X-X-X-X-X-X-X-|
    S |----------------|------ooooooo---|----o--o-o--o---|----o---oo--o-oo|----o--o-o--o---|
    B |o---------------|----------------|o-------o-o-----|o------o--------|o-------o-o-----|
    
    C |----------------|X---------------|----------------|X---------------|X---------------|
    H |X-X-X-X---X-----|--X-X-X-X-X-X-X-|X-X-X-X--X------|--X-X-X-X-------|----------------|
    S |----o---oo--o-oo|----o-------o---|---
  • +
    ¡Colabora con nosotros!
    Envíanos tu versión de esta canción

Letra de Inevitable
Si es cuestión de confesar
No sé preparar café
Y no entiendo de fútbol
Creo que alguna vez fui infiel
Juego mal hasta el parqués
Y jamás uso reloj
Y para ser más sincero nadie
Piensa en ti como lo hago yo
Aunque te dé lo mismo.
Si es cuestión de confesar
Nunca duermo antes de diez
Ni me baño los domingos
La verdad es que también
Lloro una vez al mes
Sobre todo cuando hay frío
Conmigo nada es fácil
Ya debes saber
Me conoces bien
Y sin ti todo es tan aburrido
El cielo está cansado ya de ver
La lluvia caer
Y cada día que pasa es uno más
Parecido a ayer
No encuentro forma alguna de
Olvidarte porque
Seguir amándote es inevitable.
Siempre supe que es mejor
Cuando hay que hablar de dos
Empezar por uno mismo
Ya sabrás la situación
Aquí todo está peor
Pero al menos aún respiro
No tienes que decirlo
No vas a volver
Te conozco bien
Ya buscaré qué hacer conmigo
El cielo está cansado ya de ver
La lluvia caer
Y cada día que pasa es uno más
Parecido a ayer
No encuentro forma alguna de
Olvidarte porque
Seguir amándote es inevitable.
Siempre supe que es mejor
Cuando hay que hablar de dos
Empezar por uno mismo.




[Inevitable chords][Inevitable cifra]
© LaCuerda.net · aviso legal · privacidad · es · en · pt · contacto