Acordes de Guitarra » S »Shakira » Moscas En La Casa (Tab)

Moscas En La Casa
Shakira

Letras, Acordes y Tabs para Guitarra, Bajo y Ukulele

  • DO9                          LAm
    mis dias sin ti son tan oscuros
                                     FA9
    tan largos y grises mis dias sin ti
                               SOL9
    mis dias sin son tan absurdos
    
    tan agrios tan duros mis dias sin ti
    DO9                          LAm
    mis dias sin ti no tienen noche
                                   FA9
    si alguna parece es inutil dormir
                              SOL9
    mis dias sinti son un deroche
    
    las horas no tiene principio ni fin
    LAm
    tan faltos de aire
    FA
    tan llenos de nada
    
  • INTRO:  C Am F G
    
          C                            Am
    1.      Mis días sin ti son tan oscuros
                                                F
          tan largos, tan grises mis días sin ti
                                       G
          mis días sin ti son tan absurdos
                                              C
          tan agrios, tan duros mis días sin ti.
    
          C                            Am
          Mis días sin ti no tienen noches
                                          F
          si alguna parece es inútil dormir
                                      G
          mis días sin ti son un derroche
                                             Am
          las horas no tienen principio ni fin.
    
    
  • olash banda como stan? spero que chidop jeje ahi les
    paso sta rola version del disco "grandes exitos"
    se la kiero dedicar a ITZEL GUADALUPE (kia 40) t xtraño
    mil mija neta como m dedicaste una "algo mas" de la 5ta
    stacion, pues yo t dedico sta, espero y nunca m olvides
    porque yo nunca t olvidare
    pues va un saludo a la raza del norte, a la banda
    del centro y a mis amigos del sur de la republica
    
    
    
    INTRO:
    
    E------------------------------------------------
    A---10-------------------------------------------
    D-----10-----------------------------------------
    G--------9-9/12-(9)------------------------------
    B-------------------------------13-10-9h10---10--
    e-------------------10/12-12-10------------9-----
    
    
    
    E------------------------------------------------
    A------------------------------------------------
    D------------------------------------------------
    G------------------------------------------------
    B-------------13-10-----10---------10-10-10/12---
    e--10/12-12-10------9h8----8h9-9-8----
  • intro: C Am F G
    
    E---------------------------------------------------------
    A-10------------------------------------------------------
    D---10----------------------------------------------------
    G-----9-9/12-(9)------------------------------------------
    B----------------------------13-10-9h10---10------------13
    e----------------10/12-12-10------------9----10/12-12-10--
    
    E----------------------------------------------------------
    A----------------------------------------------------------
    D---------------------------------------------------12-9-10
    G---------------------------------------10/12-10--10-------
    B-10-----10--------10-10--10/12-12--10/8---------8---------
    e----9h8----8h9-9-8----------------------------------------
    
    
      C         C*          Am
    Mis dias sin ti son tan oscuros
        Am7                       F
    
  • e|------------------------------------------------------------8-10*8-8-------10-|
    B|-----8~--8-10*8-8------------------------------------10--10----------10/12----|
    G|-7/9---9----------9-9~-/10-9-7------------------------------------------------|
    D|-------------------------------10-9-7--------------7--------------------------|
    A|---------------------------------------10-10-8\7-5----------------------------|
    E|------------------------------------------------------------------------------|
    
     
    e|--10-10----8------------------------------------------------------------------|
    B|--------10---10/12~--5-----5-3-----3-1-----1-0------------8~--8\6-5-8-/10-----|
    G|-------------------------5-------4-------2--------5-7-7/9---9-------------9-9-|
    D|-----------------------5-------5-------3--------5-----------------------------|
    A|------------------------------------------------------------------------------|
    E|------------------------------------------------------------------------------|
    
     
    e|-----------------------------------------------------------------8*7-8/10-10--|
    B|---------------------------------------3---3-5-6-8-8-/10-10-10\8--------------|
    G|--9/10\9-7-7*9*7-------------------4*5---5------------------------------------|
    D|-----------------10-9-7--------3*5--------------------------------------------|
    
  • Shakira
    Moscas En La Casa (BAJ)
    AUTOR: Shakira Mebarak
    ALBUM: Dónde Están los Ladrones? (1998)
    
    De Miauri
    
    Intro
    
    E|----------------------------------------------------------------|
    A|--3-3--3--3--------------------------------------3-5---3-----5--|
    D|------------2-5------------------3-3--3-3--3-4-5-----5-----5----|
    G|----------------2--2-4-2-4-5-4-2-------------------------5------|
    
    Verso
    
    E|----------------------------------------------------------------|
    A|--3-3--3--3--------------------------------------3-5---3-----5--|
    D|------------2-5------------------3-3--3-3--3-4-5-----5-----5----|
    G|----------------2--2-4-2-4-5-4-2-------------------------5------|
    
    Tan Faltos de Aire
    
    E|----------------1-1--1-1-----------------------------3--|
    A|--0-0--0-0--3-3----------3-3-5-55------5-5------3-5-6---|
    D|-------------3------------3------7---------7-5----------|
    G|----------------------------------7-6-------------------|
    
    Otro
    
    E|--------------------------------------------------------------
  • +
    ¡Colabora con nosotros!
    Envíanos tu versión de esta canción

Letra de Moscas En La Casa
mis dias sin ti son tan oscuros
tan largos y grises mis dias sin ti
mis dias sin son tan absurdos
tan agrios tan duros mis dias sin ti
mis dias sin ti no tienen noche
si alguna parece es inutil dormir
mis dias sinti son un deroche
las horas no tiene principio ni fin
tan faltos de aire
tan llenos de nada
chatarra inservible
basura en el suelo moscas en la casa
el resto sigue igual , el tiempo de cada acorde varia en estrofas tienes que escuchar la cancion para que puedan cojerle el ritmo.




[Moscas En La Casa chords][Moscas En La Casa cifra]
© LaCuerda.net · aviso legal · privacidad · es · en · pt · contacto