Acordes de Guitarra » R »Rojo » Eres todo poderoso (Tab)

Eres todo poderoso
Rojo

Letras, Acordes y Tabs para Guitarra, Bajo y Ukulele

  • INTRO; Bm-A/C#-D, G, Bm, A...
    
    
       Bm                  G
    La única Razón de mi adoración
    D             A
    Eres tú mi Jesús
       Bm             G
    El único motivo para vivir
    D              A
    Eres tú Mi Señor
    
          Bm          G
    Mi única verdad esta en Ti
             D              A
    Eres mi luz y mi salvación
          Bm           G
    Mi único amor eres Tu Señor
            D             F#
    Y por siempre te alabaré
    
  •  B-B-B-C#-C#-C#-D-D-G--
    DC#-A-DC#-A-DC#-DC#-A-DC#-A-DC#//B
    
    
       Bm                  G
    La única Razón de mi adoración
    D            F#m
    Eres tú mi Jesús
       Bm             G
    El único motivo para vivir
    D            F#m
    Eres tú Mi Señor
    
          Bm          G
    Mi única verdad esta en Ti
             D              A
    Eres mi luz y mi salvación
          Bm           G
    Mi único amor eres Tu Señor
            D             A
    
  • e---------------------------------------------------------------------
    B-------------------------3-2------3-2-----3----3-2----3-2---3--------
    G-----------------------------2---------2-------------2-------2---(4)-
    D--xxxx--xxx---xx-x---------------------------------------------------
    A--5555--777---99-2---------------------------------------------------
    E--xxxx--xxx---xx-x---------------------------------------------------
    
     Ya saben las “x” no suenan…  esto es punteo… se repite dos veces
    
    Este punteo es mas como un arpegio, es para los versos:
        Bm              G                D             A
    e-------------------------------------------------------------------
    B-------------------------------------------------------------------
    G------7-----7---------4-----4---------7-----7--------6------6------
    D----9--9-----9------5--5-----5-------7--7-----7-----7--7------7----
    A-----------------------------------5-------5-----------------------
    E--7-------7--------3------3-----------------------5--------5-------
    
    Estos los requintos para el Coro: con rasgueo, que es súper sencillo!!!
    
    
  • Intro
    G|---------------------------------|
    D|---------------9---------7-------| x2
    A|-22--44-55----9--------7---------|
    E|----------3⁄7------5-------------|
    
    Verso
    
    G|---------------------------------|
    D|---------------------------------|
    A|--222------222--555--------------|
    E|-------555----------555----222---|
    
    Coro
    G|--------------------7⁄9⁄7--------|
    D|-----2⁄4-------------------------|
    A|--22----------4⁄5------------6⁄7-|
    E|----------33--------------55-----|
    
    G|--------------------7⁄9⁄7--------|
    D|-----2⁄4-------------------------|
    A|--22----------4⁄5----------------|
    E|----------33--------------22-----|
    
    Después el intro-verso y el coro
    se repite otra vez
    
    Solo
    G|---------------------------------|
    D|--------------------22--44-------|
    A|--22-44-55-----55----------------|
    E|-----------33--------------55----|
    
    Coro 2
    G|-------------------9⁄11⁄9---------|
    D|----4⁄6---------------------------|
    A|--4-------6&
  • +
    ¡Colabora con nosotros!
    Envíanos tu versión de esta canción

Letra de Eres todo poderoso
La única Razón de mi adoración
Eres tú mi Jesús
El único motivo para vivir
Eres tú Mi Señor
Mi única verdad esta en Ti
Eres mi luz y mi salvación
Mi único amor eres Tu Señor
Y por siempre te alabaré
Tu Eres Todo poderoso
Eres Grande y Majestuoso
Eres Fuerte e Invencible
Y no hay nadie como Tú
Eres Todo poderoso
Eres Grande y Majestuoso
Eres Fuerte e Invencible
Y no hay nadie como Tú
1O0pOrCiEnTo aLieNtO d`ViDa




[Eres todo poderoso chords][Eres todo poderoso cifra]
© LaCuerda.net · aviso legal · privacidad · es · en · pt · contacto