Acordes de Guitarra » R »Rojo » Te Alabaré mi Buen Jesús (Tab)

Te Alabaré mi Buen Jesús
Rojo

Letras, Acordes y Tabs para Guitarra, Bajo y Ukulele

  • E ---0--|---0--|---0---|
    B ---0--|---0--|---0---|
    G ---9--|---8--|---6---|
    D ---9--|---9--|---7---|
    A ---7--|---9--|---7---|
    E ---X--|---7--|---5---|
         E      B      A
    
    Guitarra de fondo
    E--------------------------------------------------- |
    B-----9/12--12--10-9--5----------------------------- |x2
    
    
    
    E             Bsus4
    Eres tú la unica razón
           C#             A
    de mi adoración, Oh Jesús.
    E               Bsus4
    Eres tú, la esperanza que
    
  • B)-9_12-----10----9-----|
    G)------------------9---|....... 2x (2 Veces)
    
    SOLO
    E5           EM7             C#m7           Asus2
    Eres Tú la única razón de mi adoración Oh Jesús.
    E5               EM7         C#m7           Asus2
    Eres Tú, la esperanza que ahnele tener Oh Jesús.
    F#m                   Bsus2 Dsus2add13                Bsus2
    Confio en ti me has ayudado,   tu salvacion me has regalado.
    E5                EM7             Asus2         Bsus4 B
    Hoy hay gozo en mi corazón, con mi canto te alabaré.
    
    CORO I
    F#    C#sus2 D#m7        Bsus2  F#      C#sus2         Bsus2 B
    Te alabaré,   te glorificaré,    te alabaré mi buen Jesús.
    
    SOLO...
    
    CORO I... 2x
    
  • ////E/G#  -  C#9sus4 - Aadd9////
    
    E/G#         C#9sus4          C#m7/B        A2
    Eres tu la unica razon de mi adoracion oh Jesus
    E/G#         C#9sus4          C#m7/B        A2
    Eres tu la esperanza que anhele tener oh Jesus
    
    F#m7/Eb                     E - C#9sus4
        Confie en ti me has ayuda     do   
    F#m7/Eb                   B9sus4 - C#9sus4
        Tu salvacion me has regala       do
    E/G#         C#9sus4              A2          B(omit3)
    Hoy hay gozo en mi corazon con mi canto te alabare
    
    (todos los acordes del coro van en omit3, es un rasgido tipico de rock, denle rapido)
    
    F#      C#  Eb          B   F#       C#           B   C#
    Te alabaré, te glorificaré, te alabaré mi buen Jesús
    F#      C#  Eb          B   F#       C#           B   C#
    Te alabaré, te glorificaré, te alabaré mi buen Jesús
    
  • ////MI SI LAx2//// (notas suspendidas)
    
    Intro guitarra:
    Comienza después de 2 vueltas del intro de rasgueo
    y dura 2 vueltas del mismo
    
              MI SI LA       MI SI LA
    Mi(1era)|-7--7--5-4-0--9-7--7--5-4-0--(5-4-5-7)-|
    
    Lo que esta entre paréntesis es opcional y solo se toca al final
    
    Estrofas:
    MI             SI
    Eres tú, la unica razón
           DO#m           LA
    de mi adoración, Oh Jesús.
    MI              SI
    Eres tú, la esperanza que
        DO#m           LA
    anhele tener, Oh Jesús.
    
  • E ---0--|---0--|---0---|
    B ---0--|---0--|---0---|
    G ---9--|---2--|---2---|
    D ---9--|---9--|---7---|
    A ---7--|---7--|---7---|
    E ---X--|---X--|---5---|
         E      B/E    A
    
    PARA TOCAR ESTA CANCINO SE UTILISAN ESTOS ACOR
    DES LOS ACORDES DE ARRIBA SE BUELBEN A UTILIZAR
    
    E --2--|--2--|--4--|--0--|--4--|
    B --2--|--2--|--4--|--0--|--5--|
    G --4--|--2--|--6--|--2--|--6--|
    D --4--|--4--|--6--|--2--|--6--|
    A --2--|--4--|--4--|--0--|--4--|
    E --2--|--2--|--4--|--X--|--4--|
        B    F#m   C#m   A/E   D#m
    
    E             B/E
    
  • Acordes: E5     B5     A5    Ebaj   Cbaj   Dbaj   Bbaj
    E        0  -   0  -   0  -   x  -    x  -   x  -   x
    B        0  -   0  -   0  -   x  -    x  -   x  -   x
    G        9  -   8  -   6  -   x  -    x  -   x  -   x
    D        9  -   9  -   7  -   9  -    5  -   7  -   4
    A        0  -   0  -   0  -   7  -    3  -   5  -   2
    E        0  -   0  -   0  -   7  -    3  -   5  -   2
    
    Intro:
    //E - B - C#m - Aaad2//
    
    //E5 - B5 - A5x2//
    
    Acompañado de este punteo:
        E5 B5     A5
    E |-7--7--5-4-0--9-7--7--5-4-0|
    B |---------------------------|
    G |---------------------------|
    D |--¬¬¬-------------------------|
    A |--¬¬¬-------------------------|
    
  • Bueno esta es mi primera transcripcion y es una corrección a la de
    mauricio aguilar y creo q esta casi exacta solo unos arreglos en el
    coro
    Ojo los cambios son exactamente en la silaba en q estan
    
    intro:
    E|-*1/12/1----0--0------------0--0-------------------------|
    A|-------------------2s7-7-----------2s7-7-----------------|
    D|---------------------------------------------------------|
    G|---------------------------------------------------------|
    
    E|--5-5-5-5-5---0--0------------0--0-----------------------|
    A|--------------------2s7-7------------2s7-7---------------|
    A|---------------------------------------------------------|
    D|---------------------------------------------------------|
    G|---------------------------------------------------------|
    
    Verso:
    
     E                            C#             A
    eres tu la unica razón de mi adoración oh Jesús
    E|---0--0--0--0--0--0--0--0-----------------5--5--5--5--5--|
    A|----------------------------4--4--4--4-------------------|
    D|--------------
  • +
    ¡Colabora con nosotros!
    Envíanos tu versión de esta canción

Letra de Te Alabaré mi Buen Jesús
Guitarra de fondo
Eres tú la unica razón
de mi adoración, Oh Jesús.
Eres tú, la esperanza que
Anhele tener, Oh Jesús.
Confié en tí me has ayudado
Tu salvación me has regalado.
Hoy hay gozo en mi corazón
Con mi canto te alabaré.
//Te alabaré, Te glorificaré
Te alabaré mi Buen Jesús //
Estribillo
En todo tiempo de alabaré En todo tiempo te adoraré
Guitarra Eléctrica Fondo
Luego se le sube medio tono al Coro
//Te alabaré, Te glorificaré
Te alabaré mi Buen Jesús //
Espero q la disfutren tocándola para alabar a Dios
Dios los Bendiga




[Te Alabaré mi Buen Jesús chords][Te Alabaré mi Buen Jesús cifra]
© LaCuerda.net · aviso legal · privacidad · es · en · pt · contacto