Acordes de Guitarra » R »Rojo » Jardín de Rosas (Tab)

Jardín de Rosas
Rojo

Letras, Acordes y Tabs para Guitarra, Bajo y Ukulele

  • ------
    Intro:  Em, Am, C, D
    ------
    
    
        Em            Am
    Parece claro que todo es mas                       
    
    C       D             Em    D   
    fácil contigo tu eres Dios
                 
                 Em                   Am     
    que fuera de mi, si yo no te tuviera a ti
    
              C               D         Em 
    para confrontar la vida cada día y así poder
    
       D
    existir
    
    
  • E|----------|
    B|----------|
    G|----------|
    D|----------|
    A|----------|
    E|----------|
    
    
    Intro:
    Em7   Asus7
    
    
    Verso 1:
            Em7               Asus7          D
    Parece claro que todo es más fácil contigo.
    Asus7    Em7
    Tú eres Dios.
                 Em7                     Asus7
    Qué fuera de mí si yo no te tuviera a ti 
                 D                     Asus7
    
  • intro guitarra: Em7-Am   /2 veces
    
             Em7
    Parece claro
                Am
    Que todo es mas
               D
    Fácil contigo
              Em7   D
    Tu eres Dios
    
               Em7
    Que fuera de mi
                       Am
    Si yo no te tuviera aquí
                  D
    para confrontar la vida cada día
      Em7            D
    y así poder existir
    
    
  •    INTRO:
    G
    D    0h2  -2-2              5-7
    A 0h2                   5/7     5-0
    E               0-3-0-5
    
    LA PARTE :'Yo quiero que mi oracion sea....
    es asi.
    
    G                 0h2-0
    D     0h2-0     2
    A   2       0-3
    E 3
    
    saludos ala gente de la iglesia palestina de las asambleas 
    de Dios de S.J.L. y especial a la gente del grupo PRE-DI-K y 
    cualquier pedido escribanme al correo bye bendiciones.
  •           MIm7            LAm2/7
    1:------------------------|----------|
    2:-x-x-----3-3-3---3---8-|-5-5-5-5--|
    3:-x-x---0-0-0-0---0---|-5-5-5-5--|
    4:-x-x---2-2-2-2---2---|-7-7-7-7--|
    5:-x-x---2-2-2-2-2-2-2---7-------|-7-7-7-7--|
    6:------------------------|----------|
    
    Bajo:
    5:--------7-------------------10---|
    6:--3/5-5--0-0-0-0-3-0-5-5/10----7-|
    
    1° Estrofa: 
          MIm
    Parece claro
             LAm
    que too es más
           RE
    fácil contigo
           MIm      RE      
    
  • Bajo
    
    Intro
    E!--—5p7-7/10------------------------------------5--------¡
    A!-----------------7—7-7----7---7----7----------------7/0-¡
    D!----------------------------5---7-----4-5-7-5 ----------¡
    G!--------------------------------------------------------¡
    
    I ESTROFA
    E!-7--------7---7--5—5-5-------5p7—7/10---7---7—7------¡
    A!---3—3-3----5----------5—5-5----------7---7----------¡
    D!-----------------------------------------------------¡
    G!-----------------------------------------------------¡
    
    Coro
    E!---3(6)-------------------3(6)------------------¡
    A!---------5(6)--2(6)--3(6)------5(6)--2(6)--3(6)-¡
    D!------------------------------------------------¡
    G!------------------------------------------------¡
    
    E¡3----------0-5-3---3--------0-5-3--¡
    A¡--2------3-----------2-----3-------!
    D¡----2-0----------------2-0---------!
    G¡-----------------------------------!
    
    E¡-3--------0-5-3---3----------0-5-3-¡-3-----------------¡
    A¡---2-----3-----------2-----3-------¡---2------3
  • hola amigos
    la otra transcripcion que hice de esta
    cancion taba mal
    esta esta bien,
    no tiene octavas mas bajas ni altas
    esta bien
    
    Intro
    E|---------0-00-|-0-3-0---|-------------|---|------|
    A|--0h2/5/7-----|-------0-|-----------0-|---|-7/0--|
    D|--------------|---------|-2/4/5/7-5---|---|------|
    G|--------------|---------|-------------|---|------|
    
    ...tu eres Dios...
    E|----|-0-00-|-0-3-0-|------|------|-------|-0--07--|
    A|--2-|------|-------|-0-00-|------|-2/5/7-|--7-----|
    D|----|------|-------|------|-0-00-|-------|--------|
    G|----|------|-------|------|------|-------|--------|
    
    No quiero ni pensar
    E|--3-3-3-3-33-|------------|-----------|--------------|
    A|-------------|-5-5-5-5-55-|-2-2-2-2-2-|-3-3-3-3-333--|x2
    D|-------------|------------|-----------|--------------|
    G|-------------|------------|-----------|--------------|
    
    Yo quiero que...
    E|--3-7-------|--0--3-|-3-7-------|--0--3-|-3-7-------|-----|------|
    A|------5/7-5-|-3--0--|-----5/7-5-|-3--0--|-----5/7-5-|-0/3-|-555--|
    D|------
  • Que tal gente, espero q super bien bueno yo aca trayendelo otra
    partitura de bateria
    espero q les guste q fue con esfuerzo y dedicacion q la pude sacar completita.
    sin mas demoras ahi les va:
    
    nota: - en la partitura los simbolos y su instrumento son:
            'C' crash, 'H' hithat, 'R' Ride, 'S' snare o tarola, 'B' bajs drum o bombo
            't' ton pequeño (el de la izquierda) - 'T' ton mediano (el de la derecha)
             y 'N' napoleon o ton grande
          - en el hit-hat: 'º': es cuando se toca semiabierto 'X' cerrado
          - '@' (en la tarola) es cuando se toca en el filo de la tarola)
          - la cancion esta en 4/4 y se toca en corcheas y en negras no se aceleren tanto
            por q no son semicorcheas.
          - hay partes en la cancion q se acompañan con pandereta
    
    intro: (despues del intro de la guitarra)
    
    C |X---------------|----------------|--------------X-|
    H |--X-X-X-X-X-X-X-|X-X-X-X-X-X-X-X-|X-X-X-X-X-X-º---|
    S |----@---@---@---|@---@---@---@---|@---@---@
  • +
    ¡Colabora con nosotros!
    Envíanos tu versión de esta canción

Letra de Jardín de Rosas
Parece claro que todo es mas
fácil contigo tu eres Dios

que fuera de mi, si yo no te tuviera a ti
para confrontar la vida cada día y así poder
existir
No quiero ni pensar en una vida de
falsedad
porque contigo todo va muy bien
no quiero ni pensar que fuera de mi
si mi oración no fuera para ti
yo quiero que mi oración sea
como la fragancia de un jardín
no cualquier jardín sino un jardín
un jardín de rosas
Mi situación no era fácil

pero clamé y llegaste a mi
como el color de rosa
es la preciosa sangre
que corrió en el calvario de tu cuerpo
para darnos la solucion
Bridge:
Mi corazón y mi oración es para ti
1-|- -3- -5-7-5-2-2-5-3-2-0- - - - - - -7-5-2-2-5-3-2-0-|
2-|-3- -3- - - - - - - - - -3/5-5-7/8-7- - - - - - - - -|
3-|- - - - - - - - - - - - - - - - - - - - - - - - - - -|




[Jardín de Rosas chords][Jardín de Rosas cifra]
© LaCuerda.net · aviso legal · privacidad · es · en · pt · contacto