Tablatura para Bajo de Rojo: Eres todo poderoso
Conexión · Inscripción
Letras y Acordes
Pantalla Completa
Imprimir
Versión Texto
Añadir Favorito
Otras Versiones

Mostrar Diagramas
Desfile Automático
Formato del Texto


Eres todo poderoso(BAJ)

Rojo

calidad:
rojo0754
AUTOR: Juan Salinas
ALBUM: Con el Corazón en la mano (2007)
Enviado por santy
Intro
G|---------------------------------|
D|---------------9---------7-------| x2
A|-22--44-55----9--------7---------|
E|----------3⁄7------5-------------|

Verso

G|---------------------------------|
D|---------------------------------|
A|--222------222--555--------------|
E|-------555----------555----222---|

Coro
G|--------------------7⁄9⁄7--------|
D|-----2⁄4-------------------------|
A|--22----------4⁄5------------6⁄7-|
E|----------33--------------55-----|

G|--------------------7⁄9⁄7--------|
D|-----2⁄4-------------------------|
A|--22----------4⁄5----------------|
E|----------33--------------22-----|

Después el intro-verso y el coro
se repite otra vez

Solo
G|---------------------------------|
D|--------------------22--44-------|
A|--22-44-55-----55----------------|
E|-----------33--------------55----|

Coro 2
G|-------------------9⁄11⁄9---------|
D|----4⁄6---------------------------|
A|--4-------6⁄7----------------8⁄9--|
E|--------5------------------7------|

G|-------------------9⁄11⁄9---------|
D|----4⁄6---------------------------|
A|--4-------6⁄7---------------------|
E|--------5------------------4------|

Final

G|------------------------6-----4--|
D|-----------------------6-----4---|
A|--44-66-77----5-----4------2-----|  x4
E|------------5--------------------|

Bueno Espero que le sirva para tocar
en su iglesia estas son la notas
originales y si no entiende

⁄═slider

X significa cuanto veces hay que
tocar la tablatura
Este fichero es trabajo propio de su transcriptor y representa su interpretación personal de la canción. El material contenido en esta página es
para exclusivo uso privado, por lo que se prohibe su reproducción o retransmisión, así como su uso para fines comerciales.


© LaCuerda.net · Aviso Legal · Privacidad