Acordes de Guitarra » R »los Rodriguez » Mil Horas (Tab)

Mil Horas
los Rodriguez

  • Letra y Acordes
             Cm7         Dm7             Gm7
    Hace frio y estoy lejos de casa,
              Gm7                  Dm7                   Gm7
    hace tiempo que estoy sentado sobre esta piedra,
                      Ebmaj7          Dsus4               C7
    yo me pregunto para que sirven las guerras
                          C7
    Tengo un cohete en el pantalon, y vos estas tan fria,
                   Gm7
    como la nieve a mi alrededor, vos estas tan blanca,
    EbMaJ7
    que yo no se que hacer
    
    Gm7                                                            Cm7
             La otra noche te espere bajo la lluvia dos horas,
             Dm7                   Ebmaj7
    mil horas, como un perro,
    Gm7                                                 Cm7
          y cuando llegaste me miraste y me dijiste "Loco,
    Dm7                            Ebmaj7      Dm7
    
  • Tablatura
    e|---------------------------------------------
    B|---------------------------------------------
    G|---------------------------------------------
    D|---------------------------------------------
    A|-------------3-5-6-6-5-----3-3---------------
    E|-3-5-6-6-5-3-----------5-6-----6--3-5-6-5-3--
    
    
    e|---------------------------------------------------
    B|---------------------------------------------------
    G|---------------------------------------------------
    D|---------------------------------------------------
    A|-------------3-5-6-6-5------3-3--------------------
    E|-3-5-6-6-5-3-----------5-6-----6--3-5-6-6-5--6-5-3-
    
    La guitarra acompaña en Gm; Cm7 y Dm7
    
    despues repite lo mismo antes del final.
    lo termina en: Gm, Dm7, Gm,
                   Gm, Dm7, D#, Gm
    
  • +
    ¡Colabora con nosotros!
    Envíanos tu versión de esta canción

Letra de Mil Horas
Hace frio y estoy lejos de casa,
hace tiempo que estoy sentado sobre esta piedra,
yo me pregunto para que sirven las guerras
Tengo un cohete en el pantalon, y vos estas tan fria,
como la nieve a mi alrededor, vos estas tan blanca,
que yo no se que hacer
La otra noche te espere bajo la lluvia dos horas,
mil horas, como un perro,
y cuando llegaste me miraste y me dijiste "Loco,
estas mojado, ya no te quiero"
Y en el circo vos ya sos una estrella,
una estrella roja que todos se la imaginan,
si te preguntan,
vos no me conocias, no, no
Tengo un cohete...
Ah, ah, ah, ah, ah, ah, ah, ah



© LaCuerda.net · aviso legal · privacidad · contacto