Acordes de Guitarra » R »Ricardo Arjona » Tocando Fondo (Tab)

Tocando Fondo
Ricardo Arjona

Letras, Acordes y Tabs para Guitarra, Bajo y Ukulele

  •   G                 D      C                     G
    Pegue tu foto en el ropero para sentir que estas aqui
       C                  G                 D            C
    yo me instale en el mes de enero, afuera, creo, q es abril,
         G                     D       C                  G
    me importa un bledo el noticiero, total jamas hablan de mi
      C                  G                 D            C
    hice un pais de este agujero desde que tu no estas aqui...
    
    
    (2)
      Am                  G                 F                G
    Este es el himno nacional y por bandera tengo tu tanga cafe
       Am                G                F       G          D
    confieso que la paso mal y no se como puedo mantenerme en pie.
    
    (3)
      G                 D                C               G
    Y sigo aqui tocando fondo descubrindo todo lo que nos falto
     C                    G                   D                  C
    
  • G   D/F#  Em  C  G  D  C
    
    G                  D/F#   G/F                Em
    Pegué tu foto en el ropero, para sentir que estas aquí,
    C                           G              D              C
    yo me instalé en el mes de enero, afuera creo, que es abril.
    G                        D/F#   G/F                Em
    Me importa un bledo el noticiero, total jamás hablan de mí,
    C                         G             D              C  C G/B
    hice un país de este agujero, desde que tú, no estas aquí.
    Am                 Em/G              F              G
    Este es el himno nacional y por bandera tengo tu tanga café,
    Am                  Em/G           F                 D
    confieso que la paso mal y no sé cómo puedo mantenerme en pie.
    
       G               D/F#             G/F            Em
    Y sigo aquí tocando fondo descubriendo todo lo que nos faltó,
    C                      G                  D                   C
    echándome la culpa en todo derritiendo el poco aire que me quedó.
       G               D/F#          G/F                 Em
    
  • -----------------------------------------------
    
    
    Intro: G   D/F#  Em  C  G  D  C
    
    E||--12-10-10----------------|-12-10-10----------------|
    B||------------8--8-10-10----|-----------8--8-10-10----|
    G||--------------------------|-------------------------|
    D||--------------------------|-------------------------|
    A||--------------------------|-------------------------|
    E||--------------------------|-------------------------|
    
    
    |-----------------------------|-----------------------||
    |--13-12-13-12--8--8-10-10----|--10/12--8-------------||
    |-----------------------------|-----------------------||
    |-----------------------------|-----------------------||
    |-----------------------------|-----------------------||
    |-----------------------------|-----------------------||
    
    
  • E|-10b12-10--------------------|
    B|----------15-12-------10-----|
    G|----------------12-14--------|
    D|-----------------------------|
    A|-----------------------------|
    E|-----------------------------|
    
    Segundo Rif:
    E|-10b12-10--------------------------------------------------|
    B|----------15-12-------10-12b13-12-13-12-------10-12/13-12--|
    G|----------------12-14-------------------12-14--------------|
    D|-----------------------------------------------------------|
    A|-----------------------------------------------------------|
    E|-----------------------------------------------------------|
    
      G                 D      C                     G
    Pegue tu foto en el ropero para sentir que estas aqui
       C                  G                 D            C
    yo me instale en el mes de enero, afuera, creo, q es abril,
         G                     D       C                  G
    
  • +
    ¡Colabora con nosotros!
    Envíanos tu versión de esta canción
  • Tutorial
    como tocar intro de tocando fondo-ricardo arjona
    0:27

Letra de Tocando Fondo
Pegue tu foto en el ropero para sentir que estas aqui
yo me instale en el mes de enero, afuera, creo, q es abril,
me importa un bledo el noticiero, total jamas hablan de mi
hice un pais de este agujero desde que tu no estas aqui...
(2)
Este es el himno nacional y por bandera tengo tu tanga cafe
confieso que la paso mal y no se como puedo mantenerme en pie.
(3)
Y sigo aqui tocando fondo descubrindo todo lo que nos falto
echandome la culpa en todo, derritiendo el poco aire que me quedo,
y sigo aqui tocando fondo desde mi pais que es este 5to piso,
desde tu exilio voluntario, la nostalgia sigue de primer ministro.
(1)
Todo esta intacto en mi pais, tal cual como lo abandonaste
las flores del papel tapiz, la copia del Dali que olvidaste...
demas esta decir "te extraño" y el resto de cursilerias,
"no insistas en lo que hace daño" es otra frase de tu autoria.
(2)
Y aunque he pagado los impuestos de esta banca rota que es vivir sin ti,
ya no me queda presupuesto para otro invierno sin que estes aqui...
(3)
Y sigo aqui tocando fondo descubrindo todo lo que nos falto
echandome la culpa en todo, derritiendo el poco aire que me quedo,
y sigo aui tocando fondo desde mi pais que es este 5to piso,
desde tu exilio voluntario, la nostalgia sigue de primer ministro.
(3)
Y sigo aqui tocando fondo descubrindo todo lo que nos falto
echandome la culpa en todo, derritiendo el poco aire que me quedo,
y sigo aui tocando fondo desde mi pais que es este 5to piso,
desde tu exilio voluntario, la nostalgia sigue de primer ministro.




[Tocando Fondo chords][Tocando Fondo cifra]
© LaCuerda.net · aviso legal · privacidad · es · en · pt · contacto