Acordes de Guitarra » R »Ricardo Arjona » Sin tí, sin mí (Tab)

Sin tí, sin mí
Ricardo Arjona

Letras, Acordes y Tabs para Guitarra, Bajo y Ukulele

  • INTRO: LAm SOL DO X2
    
    DO                       SOL
    Que hace el sexo en internet,
                    FA
    el pudor en la vedet ,
                           DO
    que hace un porche en tel aviv,
    DO               SOL
    un pigmeo en un iglu,
                    FA
    una duda en un guru,
                          DO
    que hace frida sin sufrir,
       SOL                      LAm
    si asi como quien no quiere la cosa,
       FA                DO                      SOL
    mas facil disparar rosas, un misil que tu quizas,
    FA                               DO
    quien me manda ser adicto de tus besos,
    
  • G                         D                        C
     Que hace el sexo en internet?; el pudor en la vedette?
                               G
    que hace un porsche en TelAviv?
                      D                    C
    un pigmeo en un iglu? una duda en un guru?
                           G
    que hace frida sin sufrir ?
    
       D                            Em
    Si asi, como quien no quiere la cosa,
          C           G                     D
    mas facil dispara rosas un misil, que tu un quizás
    C                                   G
     quien me manda a ser adicto de tus besos?
                        D                   Em
    si la luna no es de queso, ni tu boca souvenir,
    C                          G                           D
     que hace un casto en un motel? que hace un genio en un cuartel?
             C            G  D      C
    
  • e------3------3------3-----3----2do tiempo termina  ----15---
    B-----3------3------3-3--------------------------------------
    G----0--0---0--0---0---0-0--0--------------------------------
    D------------------------------------------------------------
    A------------------------------------------------------------
    E--0------2------3-------------------------------------------
    
    Estrofas
    
              I
    
       G                   D
    ¿Que hace el sexo en Internet
                    C
    el pudor en la vedette
                            G
    que hace un Porsche en Tel Aviv?
       G              D
    ¿un pigmeo en un iglú
                   C
    
  •   G              G            G       G
     e-----10----------10-----------10---------10-------
     b----8--8--------8--8---------8--8-------8--8------
     g---7----7------7----7-------7----7-----7-----7----
     d--------------------------------------------------
     a-7-----------9-----------10---------10------------
     e--------------------------------------------------
    
      G              G            G       G
     e-----10----------10-----------10--------15----
     b----8--8--------8--8---------8--8-------------
     g---7----7------7----7-------7----7------------
     d----------------------------------------------
     a-7-----------9-----------10-------------------
     e----------------------------------------------
    
               G                         D
     que hace el sexo en internet?;  el pudor en la vedette?
     e---------10---------------10-------------------5-------------5------
     b-------8----8-----------8----8---------------7---7---------7---7----
    
  •   G              G            G       G
     e-----10----------10-----------10---------10-------
     b----8--8--------8--8---------8--8-------8--8------
     g---7----7------7----7-------7----7-----7-----7----
     d--------------------------------------------------
     a-7-----------9-----------10---------10------------
     e--------------------------------------------------
    
      G              G            G       G
     e-----10----------10-----------10--------15----
     b----8--8--------8--8---------8--8-------------
     g---7----7------7----7-------7----7------------
     d----------------------------------------------
     a-7-----------9-----------10-------------------
     e----------------------------------------------
    
               G                         D
     que hace el sexo en internet?;  el pudor en la vedette?
     e---------10---------------10-------------------5-------------5------
     b-------8----8-----------8----8---------------7---7---------7---7----
    
  • +
    ¡Colabora con nosotros!
    Envíanos tu versión de esta canción

Letra de Sin tí, sin mí
Que hace el sexo en internet,
el pudor en la vedet ,
que hace un porche en tel aviv,
un pigmeo en un iglu,
una duda en un guru,
que hace frida sin sufrir,
si asi como quien no quiere la cosa,
mas facil disparar rosas, un misil que tu quizas,
quien me manda ser adicto de tus besos,
si la luna no es de queso,
ni tu boca suvenir,
que hace un gasto en un motel,
que hace un genio en un cuartel,
y que estas haciendo tu, ... sin mi
ESTRIBILO:
Que estas haciendo tu,
que estoy haciendo yo,
subastando en el mercado,
besos tan improvisados,
con despecho al portador,
que estas haciendo tu,
que estoy haciendo yo,
malgastando en cualquier cama ,
lo que se nos de la gana,
pa vengarnos de los dos,
que hace un lunes en verano,
un judio sin paisanos,
y que estoy haciendo yo ... sin ti.
que hace un hippie en la oficina,
una orca en la picina,
una monja en carnaval,
que haces tu cuando estas sola,
chapuceandote en las olas de un pasado que paso,
que hago yo cuando es domingo es por la tarde,
y el campeon se hace cobarde,
y pregunta donde estas,
ya no estoy para los versos de neruda,
si en mi cama no figura,
ni un buen beso de alquiler,
que hace luz sin monalisa,
un nudista con camisa
y que estoy haciendo yo ... sin ti
Que estas haciendo tu,
que estoy haciendo yo,
subastando en el mercado,
besos tan improvisados,
con despecho al portador,
que estas haciendo tu,
que estoy haciendo yo,
malgastando en cualquier cama ,
lo que se nos de la gana,
pa vengarnos de los dos,
que hace un treinta de febrero,
que hace un rey sin heredero,
y que estoy haciendo yo... sin ti.




[Sin tí, sin mí chords][Sin tí, sin mí cifra]
© LaCuerda.net · aviso legal · privacidad · es · en · pt · contacto