Acordes de Guitarra » R »Ricardo Arjona » Santo Pecado (Tab)

Santo Pecado
Ricardo Arjona

Letras, Acordes y Tabs para Guitarra, Bajo y Ukulele

  • Bb                F
    Santo pecado conocerte
    Bb                F
    Santo pecado preguntarte
         G#               Gm
    Si viajas sola por la vida
         Eb                            Bb
    si aceptas de inquilino entre tus brazos
      F             Eb          Bb         F
    a este pobre pecado, abandonado, abandonado
    
    
    Bb                  F
    Santo pecado fue besarte
    Bb                     F
    Santo pecado hacerme adicto
         G#                  Gm
    al brillo q disparan tus ojos
           Eb                   Bb
    a tus manos investigando todo
    
  •      A#               F      A#                 F
        Santo pecado conocerte, santo pecado preguntarte,
    1. --1-x-1-1-x-x-1-x-1-x-1-x-1-1-x-x-1-x-1-1-x-x---
    2. --3-x-3-3-x-x-1-x-1-x-3-x-3-3-x-x-1-x-1-1-x-x---
    3. --3-x-3-3-x-x-2-x-2-x-3-x-3-3-x-x-2-x-2-2-x-x---
    4. --3-x-3-3-x-x-3-x-3-x-3-x-3-3-x-x-3-x-3-3-x-x---
    5. --1-x-1-1-x-x-3-x-3-x-1-x-1-3-x-x-3-x-3-3-x-x---
    6. --------------1-x-1-x-----------1-x-1-1-x-x---
    
         G                      F#        E                              A#
         si viajas sola por la vida, si aceptas de inquilino entre tus brazos,
    1. --3-x-3-3-x-x-2-x-2-x-1-x-----------------1-x-1-x-x---
    2. --3-x-3-3-x-x-2-x-2-x-2-x-----------------3-x-3-x-x---
    3. --4-x-4-4-x-x-3-x-3-x-3-x-1-x-1-x-x-1-x-x-3-x-3-x-x---
    4. --5-x-5-5-x-x-4-x-4-x-3-x-2-x-2-x-x-2-x-x-3-x-3-x-x---
    5. --5-x-5-5-x-x-4-x-4-x-1-x-2-x-2-x-x-2-x-x-1-x-1-x-x---
    6. --3-x-3-3-x-x-2-x-2-x-1-x-----------------------------
    
           F            Em          A#          F   
        a este pobre pecado, abandonado, abandonado.
    
  • A#                F 
    Santo pecado conocerte,
    1. --1--1--1--|--1-1-1-1-1-|
    2. --3--3--3--|--1-1-1-1-1-|
    3. --3--3--3--|--2-2-2-2-2-|
    4. --3--3--3--|--3-3-3-3-3-|
    5. --1--1--1--|--3-3-3-3-3-|
    6. --1--1--1--|--1-1-1-1-1-|
    A#                  F
    santo pecado preguntarte,
    1. --1--1--1--|--1-1-1-1-1-|
    2. --3--3--3--|--1-1-1-1-1-|
    3. --3--3--3--|--2-2-2-2-2-|
    4. --3--3--3--|--3-3-3-3-3-|
    5. --1--1--1--|--3-3-3-3-3-|
    6. --1--1--1--|--1-1-1-1-1-|
        G#                Gm
    si viajas sola por la vida,
    1. --4--4--4--|--3-3-3-3-3-|
    2. --4--4--4--|--3-3-3-3-3-|
    
  • +
    ¡Colabora con nosotros!
    Envíanos tu versión de esta canción

Letra de Santo Pecado
Santo pecado conocerte
Santo pecado preguntarte
Si viajas sola por la vida
si aceptas de inquilino entre tus brazos
a este pobre pecado, abandonado, abandonado
Santo pecado fue besarte
Santo pecado hacerme adicto
al brillo q disparan tus ojos
a tus manos investigando todo
al ruido q haces cuando consigues, el milagro, el milagro
Santo pecado es el deseo
Santo pecado tus caderas
y el vertice calido y siniestro
archivo de mis fantasias
tan cerca siempre del cielo y del infierno, y del infierno
he tratado de encontrar la analogia
para ponerle algun nombre
a este caos q haz causado
q me gusta y me fastidia
y me ha dado por llamarle solo
santo pecado
santo pecado
si me das una razon para estar vivo
pq despues das dos para estar muerto
y grito q es un
santo pecado
santo pecado
si construyes paraisos por un rato
pq despues me avientas al infierno
y digo q es un
santo pecado
santo pecado
santo pecado conocerte
hoy sumo sueños a mis dudas
hoy resto besos a mis ganas
hoy vivo al filo de la nostalgia
hoy tengo heridas como estrellas
hoy sueño mientras te extraño
con olvidarte, olvidarte
santo pecado
santo pecado
si me das una razon para estar vivo
pq despues das dos para estar muerto
y dice q es un
santo pecado
santo pecado
si construyes paraisos por un rato
pq despues me avientas al infierno
mentiras q te creo
verdades q te inventas
santo es el coraje
y pecado es el delirio de quererte para mi
santo pecado
santo pecado
si me das una razon para estar vivo
pq despues das dos para estar muerto
y grito q es un
santo pecado
santo pecado
Santo pecado conocerte
y ya saben si tienen dudas, comentarios, anecdotas,
chistes o lo q sea a mi mail jcd_007@hotmail.com
si van a usar esta tab para algun lugar avisenme
no sean ****gandallas***** y si buscan un
guitarrista ando en busca de banda =)




[Santo Pecado chords][Santo Pecado cifra]
© LaCuerda.net · aviso legal · privacidad · es · en · pt · contacto