Acordes de Guitarra » R »Ricardo Arjona » Quien Diría (Tab)

Quien Diría
Ricardo Arjona

Letras, Acordes y Tabs para Guitarra, Bajo y Ukulele

  •       Intro:      FA DO SIb  (2 veces)
    
         FA                  DO            REm
    A.      Quién diría que el mink y la mezclilla
                   /DO       SIb           FA
          Podrían fundirse un día, quién diría
                           LA7            REm
          Tú caviar y yo tortilla, quién diría
      SOLm7              SIb                    DO
          Parece que el amor no entiende de plusvalías.
    
    
    A.      Tú vas a banco y yo prefiero la alcancía
          Oigo Serrat y tú prefieres Locomía
          Tú vas al punto yo voy por la fantasía
          Parece que el amor no entiende de ironías
    
        FA                    DO          REm
    B.      Quién diría, quién diría que son años
                             SIb          DO
    
  •       SOL                  RE       SI7    MIm
            Quién diría que el mink y la mezclilla
                       RE       DO             SOL
            Podrían fundirse un día, quién diría
                              SI7             MIm
            Tú caviar y yo tortilla, quién diría
         LAm7               DO                      RE
            Parece que el amor no entiende de plusvalías.
    
          SOL                      RE     SI7    MIm
            Tú vas a banco y yo prefiero la alcancía
                          RE    DO         SOL
            Oigo Serrat y tú prefieres Locomía
                                   SI7         MIm
            Tú vas al punto yo voy por la fantasía
         LAm7              DO                    RE
            Parece que el amor no entiende de ironías
    
        SOL                      RE    SI7    MIm
            Quién diría, quién diría que son años
    
  • e-------3-5-7--5-----10--5-5-7--3-
    b-------3------7-7---12--7-7-7--3-
    g-----4--------7--7-------------4-
    D----5----------------------------
    A---5-----------------------------
    E--3------------------------------
    
    e-------3-5-7--5-----10--5-5-7--3---------|
    b-------3------7-7---12--7-7-7--3---------|
    g-----4--------7--7-------------4---------|
    D----5-----------------------------5------|
    A---5---------------------------------5---|
    E--3-------------------------------------3|
    
    
    G                     D
    quien diría que el mink
               Em
    y la mezclilla
                         C
    
  • Esto es el intro de la canción, está tocado en
    piano, pero lo pasé a guitarra.
    
    e|1|-------3-5-7--5-----10--5-5-7--3-
    b|2|-------3------7-7---12--7-7-7--3-
    g|3|-----4--------7--7-------------4-
    D|4|----5----------------------------
    A|5|---5-----------------------------
    E|6|--3------------------------------
    
    e|1|-------3-5-7--5-----10--5-5-7--3---------|
    b|2|-------3------7-7---12--7-7-7--3---------|
    g|3|-----4--------7--7-------------4---------|
    D|4|----5-----------------------------5------|
    A|5|---5---------------------------------5---|
    E|6|--3-------------------------------------3|
                                               |*|
    
    |*| Inicio de la canción
    
    En cuanto al resto de la canción, creo que la mejor 
    colaboración de los acordes es la de Alex Rázuri Urtecho.
    Saludos a mis amigos Jorge, Balú, Paola y Cosío.
  • +
    ¡Colabora con nosotros!
    Envíanos tu versión de esta canción

Letra de Quien Diría
A. Quién diría que el mink y la mezclilla
Podrían fundirse un día, quién diría
Tú caviar y yo tortilla, quién diría
Parece que el amor no entiende de plusvalías.
A. Tú vas a banco y yo prefiero la alcancía
Oigo Serrat y tú prefieres Locomía
Tú vas al punto yo voy por la fantasía
Parece que el amor no entiende de ironías
B. Quién diría, quién diría que son años
Los que ya llevamos juntos de la mano.
Quién diría, quién diría que lo importante
Es aceptarte y que me aceptes como humano.
¡Qué bendición la mía!, despertar junto a ti cada día.
A. Yo trovador y tú estudiante de Economía
Tú con los números, yo con la Filosofía
Y aunque suene imposible en teoría
Al amor le importan poco las utopías.
Por ser agua y aceite, que ironía
Si fuésemos iguales, que apatía
No tendríamos de qué hablar cada siguiente día.




[Quien Diría chords][Quien Diría cifra]
© LaCuerda.net · aviso legal · privacidad · es · en · pt · contacto