Acordes de Guitarra » R »Ricardo Arjona » Olvidarte (Tab)
  • Letra y Acordes
    G                     D                    
    Olvidarte es mas difícil, 
    Em                    Bm
    que encontrarse al sol de noche
        C                    G                     
    Que entender a los políticos 
    B7                    Em
    o comprar la torre Eiffel
        C                G                                      
    Mas difícil que fumarse un habano 
    B7                     Em
    en american airlines
       C                    A7            D
    Mas difícil que una flor plástica marchita
    
    G                      D                    
    Olvidarte es mas difícil 
    Em                    Bm
    que una flaca en un botero
        C                    G                    
    
  • Letra y Acordes
    Intro básico:E  B  Cm  G#m  
                 A  E  G#7 C#m
                 A  F#7  B  A  C#m  B   
    E                   B
    Olvidarte es más difícil,
              C#m              G#m   G#m7
    que encontrarse al Sol de noche,
            A             E
    Que entender a los políticos
         G#7             C#m
    o comprar la torre Eiffel,
            A           E
    más difícil que fumarse un habano 
          G#7        C#m  C#msus4
    en American Airlines,
          A                    F#7         B  A  C#m  B    
    más difícil que una flor plástica marchita.
    
    E                   B
    Olvidarte es más difícil
    
  • Tablatura
      E --------------------5-4-------------------------
      A ---------6-----4------------7-----4-------------
      D 2---------------------------------------8---6---
      G -1--1-----4-4---6------4-4---6-6---6-6---9---5--
      B --0--0---4-7---5--------4---5-5---5-5-----8---4-
      E ---0--0----------4------------------------------
      
      E ---------------------4--------------------2-------
      A --------------2h4-2-------------------------------
      D 6------7------------------------------------------
      G -6-6----6-6------------4--------------6-6--3-3-3-3
      B --5------5-5----------4------7-5h7-7-5-5----2---2-
      E ----4--------------------5-4------------------1---
    
      E ------------
      A 6--4--2--0--
      D ------------
      G 8--6--4--2--
      B ------------
      E 7--5--4--2--
    
  • +
    ¡Colabora con nosotros!
    Envíanos tu versión de esta canción

Letra de Olvidarte
Olvidarte es mas difícil,
que encontrarse al sol de noche
Que entender a los políticos
o comprar la torre Eiffel
Mas difícil que fumarse un habano
en american airlines
Mas difícil que una flor plástica marchita
Olvidarte es mas difícil
que una flaca en un botero
Que encontrarse un gato verde
o un cubano sin sabor
Mas difícil que Lady Di
en la estación del metro
Olvidarte es tan difícil olvidarte.
Estribillo
Olvidarte olvidarte
Es querer jalarle el pelo a una botella
Es creer que la memoria es un casette para borrar
Olvidarte es recordar que es imposible.
Olvidarte olvidarte
Incluso es mas difícil que aguantarte
Si extraño tu neurosis y tus celos sin razón
Como no extrañar tu cuerpo en mi colchón.

Olvidarte es un intento,
que no lo deseo tanto
Porque tanto es que lo intento
que me acuerdo mucho mas
Y he llegado a sospechar
que mi afán de no acordarm
Es lo que me tiene enfermo de recuerdos.
Olvidarte es lo que espero,
Para reanudar mi vida
Harto de seguir soñando
con la posibilidad
De que un día por error
o por la curiosidad
Le preguntes a un amigo por mis huesos.
#Cualquier duda, queja o comentario haganlo por e-mail, muchas gracias y sepan disculpar los errores.



© LaCuerda.net · aviso legal · privacidad · contacto