Acordes de Guitarra » R »Ricardo Arjona » Duerme (Tab)

Duerme
Ricardo Arjona

Letras, Acordes y Tabs para Guitarra, Bajo y Ukulele

  •            FA                 DO   REm                 /DO            SIb
    A.      Tus LAbios entreabiertos, con un leve zumbido al respirar
              (LA/DO#)                LA7                 REm                  SIb   DO  FA
          Tu cara sin gestos, tus pechos pretextos de una posible maternidad
       FA           DO         FA      LA7/DO#         REm               SIb        DO
          Toda tu dormida allí, después de la estampida de dos cuerpos y el amor
    
          FA DO REm /DO SIb SOLm DO
    
    
    A.      Tu vientre haciendo un hueco para guardar mis pistilos de agua y luz
          Tus pies descubiertos, tus brazos abiertos, tu ombligo el universo, todo en ti
          Y yo me fumo tu aliento después de la batalla de dos cuerpos y el amor
    
         FA                     DO             REm /DO SIb                    SOLm7                  DO
    B.      En tus uñas hay rastros de mi piel,        y en mi piel hay sudor del compartido
         FA              DO     LA7/DO# REm /DO SIb                      SOLm7                   DO
          Es sudor de sal que sabe a miel,            son tus manos arañando en lo prohibido
    
    
    
  •             F#                 C#   D#m                 /C#            B
    Tus labios entreabiertos, con un leve zumbido al respirar
     (A#/D)       A#7                 D#m                  B   C#  F#
    Tu cara sin gestos, tus pechos pretextos de una posible maternidad
    F#           C#         F#      A#7/D         D#m            B        C#
    Toda tu dormida allí, después de la estampida de dos cuerpos y el amor
    
    F# C# D#m /C# B G#m C#
    
    Parte A.
    Tu vientre haciendo un hueco para guardar mis pistilos de agua y luz
    Tus pies descubiertos, tus brazos abiertos,
    tu ombligo el universo, todo en ti
    Y yo me fumo tu aliento después de la batalla de dos cuerpos y el amor
    
    Parte B.
    F#               C#            D#m /C# B           G#m7             C#
    En tus uñas hay rastros de mi piel, y en mi piel hay sudor del compartido
    F#              C#     A#7/D D#m /C# B                G#m7            C#
    Es sudor de sal que sabe a miel,    son tus manos arañando en lo prohibido
    
  • F                   C
    Tus labios entre abiertos,
    G               F            C
    con un leve zumbido al respirar,
    Am                   F
    tu cara sin gestos, tus pechos pretestos,
    C               G      C
    de una posible maternidad,
    G                  C
    toda tu dormida alli,
    F                   C             G            C         
    despues de la estampida, de dos cuerpos y el amor.
    
    
    1. ----------------3h5-3----------0-2-0--------------------------------
    2. ----3-5-5/7-5-3------7-5-----3-------3-7-5-3-0---3-3----------------
    3. --2------------------------2-------------------2-------7-9-7---7----
    4. -------------------------------------------------------------7------
    5. --------------------------------------------------------------------
    6. --------------------------------------------------------------------
    
  • E      Eb     DUDAS Y/O ACLARACIONES POR FAVOR ESCRIBANLAS A
    B      Bb      alfa_omega22@hotmail.com GRACIAS
    G      F#
    D      C#
    A      G#
    E      Eb
    
    
    
    RIFF 1
    Eb|------------------------------------|
    Bb|---------0-----3------------------3-|
    F#|-------2---2--------------0-2-0-----|
    C#|-----5-------5----------4-------4---|
    G#|---5------------------2-------------|
    Eb|-3------------------0---------------|
    
    
    RIFF 2
    Eb|----15----12--10--------------------|
    
  • Una cancion muy chida , pero dificilisima
    Esto es el inicio de la canción ( Piano ,el intro ) en si todo la canción lleva la misma base
                                                           
    E||--------------------------|------------------------|
    B||-----------------------2--|--------2-2-2---2---2---|
    G||-----------1--3--1--------|--------1-1-1-------1-3-|
    D||--------4-----------4-----|----------------4-------|
    A||-----4--------------------|------------------------|
    E||--2-----------------------|------------------------|
    
    
                                                        
    -------------------------|-------------------------|
    ----------------------2--|--------2-2-2---2--2-2---|
    -------------1-----------|--------1-1-1----------3-|
    -------3--4-----3--4-----|----------------4--3-4---|
    ----1--------------------|-------------------------|
    -------------------------|-------------------------|
    
    
                                                                               
  • +
    ¡Colabora con nosotros!
    Envíanos tu versión de esta canción

Letra de Duerme
Tu cara sin gestos, tus pechos pretextos de una posible maternidad
Toda tu dormida allí, después de la estampida de dos cuerpos y el amor
A. Tu vientre haciendo un hueco para guardar mis pistilos de agua y luz
Tus pies descubiertos, tus brazos abiertos, tu ombligo el universo, todo en ti
Y yo me fumo tu aliento después de la batalla de dos cuerpos y el amor
B. En tus uñas hay rastros de mi piel, y en mi piel hay sudor del compartido
Es sudor de sal que sabe a miel, son tus manos arañando en lo prohibido
C. Duerme, duerme, que yo aún no sé si estoy soñando
O se vino el cielo a este lugar, mientras tu cuerpo aún temblando
C. Duerme, duerme, que yo seré el centinela de tus sueños
Que no hallarás allí uno mejor, que del que acabo de ser dueño
A. Tu pelo derramado, llenando de azabache mi colchón
Tus uñas pintadas, tus piernas cerradas, tus pliegues en perfecto claro oscuro
Y yo creo más en dios después de la fortuna de dos cuerpos y el amor
B. Y tú que aún no te enteras que te amo, porque no entiendes el lenguaje de mis manos
Mañana al despertar yo te diré, lo que este tiempo por cabarde me callé




[Duerme chords][Duerme cifra]
© LaCuerda.net · aviso legal · privacidad · es · en · pt · contacto