Acordes de Guitarra » R »Ricardo Arjona » Como Duele (Tab)

Como Duele
Ricardo Arjona

Letras, Acordes y Tabs para Guitarra, Bajo y Ukulele

  • C                                Cadd9
    Te conseguí la luz del sol a medianoche
    
    Am7
    Y el número después del infinito,
    
    F                              FAdd9
    E instalé la Osa Mayor en tu diadema
    
    G
    Y tú seguías ahí como si nada;
    
    C                                Cadd9
    Endulcé el agua del mar para tu sed,
    
    Am7
    Te alquilé un cuarto menguante de la luna,
    
    F                              FAdd9
    Y como buen perdedor busqué en la cama
    
  •      C                 Am                   F                G
    e-------------0-------------------0------------------3-1-0-------
    b----1-1----1----3---1--1--1----1----3---1--1--1-1-1---------3---
    g---------0-------------------2----------------------------------
    D----------------------------------------------------------------
    A----3------------------0----------------------------------------
    E-------------------------------------------1----------------3---
    
    
             C
    Te conseguí la luz del sol a medianoche
         Am
    y el numero después del infinito
            F
    e instale la osa mayor en tu diadema
       G                     G7
    y tu seguías ahí como si nada
          C
    Endulcé el agua de mar para tu sed
            Am
    
  • DO 
    Te conseguí la luz del sol a medianoche
    LAm
    y el numero después del infinito
    FA 
    e instale la osa mayor en tu diadema
    SOL     SOL7
    y tu seguías ahí como si nada
    DO 
    Endulcé el agua de mar para tu sed
    LAm
    te alquilé el cuarto menguante de la luna
    FA 
    y como buen perdedor busqué en la cama
    SOL     SOL7
    las cosas que el amor no resolvía
    
    Estribillo
    
    DO                         LAm
    
  • Intro [ C B/G Am G/Am F   G ]
    
             C
    Te Consegui la luz del sol a media noche
         Am
    Y el número Después del infinito
            F
    e instalé la osa mayor en tu diadema
       G
    Y tu seguías ahí como si nada
    
         C
    Endulcé el agua del mar para tu sed
            Am
    Te Alquilé un cuarto menguante de la luna
         F
    y Como buen perdedor busqué en la cama
         G
    Las cosas que el amor no resolvía
    
    
  •         Csus2               Am711          F69                    G*
    e|-3----3--3---3---|-3---3--3--3---|-3---3--3---3----|-3---3---3---3---|
    B|-3----3--3---3---|-3---3--3--3---|-3---3--3---3----|-3---3---3---3---|
    G|-0--0---0--0---0-|-0--0--0--0--0-|-0--0---0---0--0-|-0--0---0---0--0-|
    D|-----------------|---------------|-----------------|-----------------|
    A|-3---------------|-0-------------|-----------------|-----------------|
    E|-----------------|---------------|-1---------------|-3---------------|
    
    
    RIFF 2
    
            Cadd9            Am711         F69       G*
    e|-----------3----|-----------3----|------------3---|
    B|-3---3--3--3----|-3---3--3--3----|-3---3---3--3---|
    G|-0---0--0-----0-|-0---0--0-----0-|-0---0---0------|
    D|-2--2--2--2-----|-2--2--2--2-----|-0--0--0---0--0-|
    A|-3--------------|-0--------------|----------------|
    E|----------------|----------------|-1-------3------|
    
    RIFF 3
    
  • +
    ¡Colabora con nosotros!
    Envíanos tu versión de esta canción
  • Tutorial
    Tutorial - como duele - Ricardo Arjona - como tocar
    6:08

Letra de Como Duele
Te conseguí la luz del sol a medianoche
Y el número después del infinito,
E instalé la Osa Mayor en tu diadema
Y tú seguías ahí como si nada;
Endulcé el agua del mar para tu sed,
Te alquilé un cuarto menguante de la luna,
Y como buen perdedor busqué en la cama
Las cosas que el amor no resolvía.
Estribillo:
Y cómo duele que estés tan lejos
Durmiendo aqui en la misma cama;
Cómo duele tanta distancia,
Aunque te escucho respirar
Y estás a cientos de kilómetros
Y duele quererte tanto,
Fingir que todo está perfecto
Mientras duele gastar la vida
Tratando de localizar
Lo que hace tiempo se perdió…
Verso:
Acabé con los jardines por tus flores,
Inventé la alquimia contra la utopía,
Y he llegado a confundir con la ternura
La lástima con que a veces me miras;
Que triste es asumir el sufrimiento,
patético es creer que una mentira
convoque a los duendes del milagro,
que te hagan despertar enamorada.
Estribillo:
Y cómo duele que estés tan lejos
Durmiendo aqui en la misma cama;
Cómo duele tanta distancia,
Aunque te escucho respirar
Y estás a cientos de kilómetros
Y duele quererte tanto,
Fingir que todo está perfecto
Mientras duele gastar la vida
Tratando de localizar
Lo que hace tiempo se perdió…
Por qué nos duele tanta distancia,
Fingir que todo está perfecto
Mientras sientes que te
que te duele gastar la vida
Durmiendo aqui en la misma cama
Como duele...
Colaboracion de Jonatan Viskovic.




[Como Duele chords][Como Duele cifra]
© LaCuerda.net · aviso legal · privacidad · es · en · pt · contacto