Acordes de Guitarra » R »Ricardo Arjona » Dame (Tab)

Dame
Ricardo Arjona

Letras, Acordes y Tabs para Guitarra, Bajo y Ukulele

  •     D                 Gadd6/B
    e-------------0/2---------0-----
    b-----------3------3------3-----
    g--------2----------------0-----
    D---0---------------------------
    A----------------------2--------
    E-------------------------------
    
    
    D         Gadd6/B                    D
    Dame tus huellas, para usarlas de zapatos
             Gadd6/B                     D
    dame tus dudas, para hacerme una pulsera
            Gadd6/B                   D
    usa mis manos, para hacerte una escalera
    D/C#         Bm       G          D
    hasta las nubes y volar a donde sea.
    
    
                  D        Gadd6/B       D
    
  •     D                 Em
    e-------------0/2---------0-----
    b-----------3------3------3-----
    g--------2----------------0-----
    D---0---------------------------
    A----------------------2--------
    E-------------------------------
    
    
    D         Em                        D
    Dame tus huellas, para usarlas de zapatos
             Em                         D
    dame tus dudas, para hacerme una pulsera
            Em                          D
    usa mis manos, para hacerte una escalera
               G         A           D
    hasta las nubes y volar a donde sea.
    
                Em                      D
    Miénteme un poco, para mantenerme atento
    
  • e-------------0/2---------0-----
    b-----------3------3------3-----
    g--------2----------------0-----
    D---0---------------------------
    A----------------------2--------
    E-------------------------------
    
    esto va en el canto y se repite 3 veces
    
    RE y SOL:
    
    e-------------0/2--------------0----------
    b-----------3------3--------------0-------
    g--------2---------------------------0----
    D---0----------------------0--------------
    A-----------------------2-----------------
    E-----------------------------------------
    y hay no mas de haber terminado la parte del canto hace este
    punteo
    
    
  •     D                 G/B
    e-------------0/2---------0-----
    b-----------3------3------3-----
    g--------2----------------0-----
    D---0---------------------------
    A----------------------2--------
    E-------------------------------
    
    
    D         G/B            D            G/B
    Dame tus huellas, para usarlas de zapatos
               D             G/B           D
    dame tus dudas, para hacerme una pulsera
            G/B            D  -   D/C#  -  Bm  -
    usa mis manos, para hacerte una escalera
      Bm/A - G         A              D      G/B    D
    hasta las nubes y volar a donde sea.
    
    
                G/B           D          G/B
    
  •          D    D/B      D    D/B     D    D/B     D    D/B
    e-------2/0----0------2/0----0-----2/0----0-----2/0----0-------
    b------3---3---3-----3---3---3----3---3---3----3---3---3-------
    g-----2-----0--0----2-----0--0---2-----0--0---2-----0--0-------
    D---0-------------0------------0------------0------------------
    A------------2-------------2-------------2------------2--------
    E--------------------------------------------------------------
    
    
    RIFF:1
           D       D/B 
    e-----0/2------0--0----0--0----
    b----3---3----3-3-----3-3------
    g---2-----0--0---0---0---0-----  SE REPITE 3 VESES
    D--0---------------------------
    A-----------2-------2----------
    E------------------------------
    
    RIFF:2
       D D/C D/B G
    
  •           D         Em
    F#]---------0h2--------0--]
    C#]-------3-----2------0--]
    A ]-----2--------------0--] <-----------------------------------------------------------.
    E ]--0--------------------]                                                             |
    B ]----------------2------]                                                             |
    F#]-----------------------]                                                             |
                                                                                            |
    *Versos:                                                                                |
              D           Em            Em               D   A/C#      Bm          G        |
    F#]---------0h2----------0-------------0----------]--2----0-----x------2------(5)--]    |
    C#]-------3-----2------(0)--0--------(0)--0-------]----3---(2)--x--3-----3---------]    |
    A ]-----2---------------------0-------------0-----]-----2----------(4)-----4-------]    |
    E ]--0------------(0)----------(0)-----------(0)--]--0-------------------------5---]    |
    B ]------------------2-------------2--------------]-------4-----x--2-----------5---]    |
    F#]-----------------------------------------------]--------------------------------]    |
            Dame   tus huellas para  usarlas de  za...                                      |
     ..patosdame   tus dudas   para hacerme una  puls..                      (aqui va la Intro)
     ..sera     usa mis manos  para hacerte una   escalera    hastalasnubes y volara donde sea
    
    
  • +
    ¡Colabora con nosotros!
    Envíanos tu versión de esta canción

Letra de Dame
Dame tus huellas, para usarlas de zapatos
dame tus dudas, para hacerme una pulsera
usa mis manos, para hacerte una escalera
hasta las nubes y volar a donde sea.
Miénteme un poco, para mantenerme atento
hazme una hamaca, con el menguante de la luna
dame tu risa, para los tiempos en veda
quitate el peso, de los besos que te sobren
Cssu2
es tan difícil respirar,
el aire en que no estas... es tan difícil
Dame tus sueños, para hacerte una diadema
dame el pasado, para no quitarte el tiempo
que lo que te esta sobrando,
a mi me salva la vida.
Dame tu llanto, para llorarlo contigo
dame el misterio de tus ojos cuando duermes
dame el aire cuando exhalas,
para ver si te respiro.
(Arpejeo:x4 veces)
Ponle mi nombre, al lunar de tu mejilla
dile a tu oido, que me escuche cuando miro
salva mis manos, con el roce de tu espalda
dame el remedio, para no curarme nunca
Cssu2
es que es tan fácil respirar,
el aire cuando estas, siempre es tan fácil.
(Arpejeo:x4 veces) (paras de tocar)
Quitame un beso, ponteló donde prefieras
dame un pretexto, para reestrenar mi vida
dame lo que quieras darme, quitame lo que tu quieras
Dame tu llanto, para llorarlo contigo
dame el misterio de tus ojos cuando duermes
dame el aire cuando exhalas,
para ver si te respiro.
(Arpejeo:x4 veces) (cada vez bajas más el volúmen)
Acordes:
EADGBE




[Dame chords][Dame cifra]
© LaCuerda.net · aviso legal · privacidad · es · en · pt · contacto