Tablatura para Guitarra de la Renga: Corazón Fugitivo
Conexión · Inscripción
Letras y Acordes
Pantalla Completa
Imprimir
Versión Texto
Añadir Favorito
Otras Versiones

Mostrar Diagramas
Desfile Automático
Manipular Acordes
Formato del Texto


Corazón Fugitivo(TAB)

la Renga

calidad:
reng1095
AUTOR: Chizzo
ALBUM: Pesados Vestigios (2014)
Enviado por Yamil
^ :  estirada
v :  vibrato
p :  ligado descendente

e|----------------------------------------------------------------------
B|----------------------------------------------------------------------
G|----------9^-8-9-8-9-8-9-8---9h16-16-14-13-14p13-14p13-14p13----------
D|------9-7------------------9---------------------------------14-------
A|--7-6-----------------------------------------------------------------
E|7---------------------------------------------------------------------

e|----------------------------------------------------------------------
B|-----13----------------15-17-15^-15-----------------------------------
G|-12^----13v13v13vp------------------12-14-12--------------------------
D|--------------------16-----------------------14-----------------------
A|----------------------------------------------------------------------
E|----------------------------------------------------------------------

e|----------------------------------------------------------------------
B|----17----19^-17-20^-17-17v-17v-17v-19^-------------------------------
G|-18----18-------------------------------------------------------------
D|----------------------------------------------------------------------
A|----------------------------------------------------------------------
E|----------------------------------------------------------------------




Ojala les guste y lo entiendan, lo saque de oído lo mejor posible :3

 ... gracias!

y Vamos La Renga el 24 en Villa Rumipal - Cordoba!

Seguime en Facebook y consultame cualquier duda

https://www.facebook.com/yamil.nicolas.franco
Este fichero es trabajo propio de su transcriptor y representa su interpretación personal de la canción. El material contenido en esta página es
para exclusivo uso privado, por lo que se prohibe su reproducción o retransmisión, así como su uso para fines comerciales.

© LaCuerda.net · Aviso Legal · Privacidad