Letra y Acordes de Reik: Sabes
Conexión · Inscripción
Letras y Acordes
Pantalla Completa
Imprimir
Versión Texto
Añadir Favorito
Otras Versiones

Mostrar Diagramas
Desfile Automático
Manipular Acordes
Formato del Texto


Reik
Sabes
calidad:
reik0208
AUTOR: Reik  corregir
ALBUM: Secuencias (2006)
Enviado por JorBet
Bueno aquí les dejo una excelente partitura les
aconsejo que la toquen con capo en el 3 traste
suena muy  o si gustan en el 1, pero si no lo tiene
no hay problema aun sonara muy bien.

Intro
e|------------|------------|-----------|------------|
B|------0-----|------------|------3----|------------|
G|--------2---|------0-----|--------5--|-------2-0--|
D|---2--------|---------3--|---5-------|----0-------|
A|-0----------|----3-------|-3---------|------------|
E|------------|-1----------|-----------|-3----------|

e|------------|------------|---------------|
B|------0-----|------------|---------------|
G|--------2---|------0-----|-------4-----0-|
D|---2--------|---------3--|----0----------|
A|-0----------|----3-------|---------------|
E|------------|-1----------|-3--------3----|

En las estrofas el Fa es abierto y en el coro es con cejilla.

C F C Sabes no pido nada mas, que estar entre tus brazos
F Dm Dm7 y huir de todo mal que a todo he renunciado
G por estar junto a ti.
C F C F Sabes no dejo de pensar, estoy enamorado te quiero confesar
Dm - Dm7 G que soy solo un esclavo que no sabe vivir...sin ti.
Am F C G Am F C Cuando llegaste tu te metiste en mi ser, encendiste la luz
G Dm F me llenaste de fe, tanto tiempo busque pero al fin te
Dm G encontre tan perfecta como te imagine, oo noo oo
Am F C G Como aguja en un pajar, te busque sin cesar
Am F C F como huella en el mar, tan dificil de hayar
Dm F Dm Tanto tiempo busque pero al fin te encontre,
G tan perfecta aa aaa...como te imagine.
C F C Sabes te quiero confesar que te encuentro irresistible
F Dm Dm7 no dejo de pensar que haria lo imposible
G por quedarme cerca de ti..
Am F C G Am F C Cuando llegaste tu te metiste en mi ser, encendiste la luz
G Dm F me llenaste de fe, tanto tiempo busque pero al fin te
Dm G encontre tan perfecta como te imagine, oo noo oo
Am F C G Como aguja en un pajar, te busque sin cesar
Am F C F como huella en el mar, tan dificil de hayar
Dm F Dm Tanto tiempo busque pero al fin te encontre,
G tan perfecta aa aaa...como te imagine.
C F C Sabes no pido nada mas que estar entre tus brazoo oos. Bueno Espero Les Aiga Gustado. By Jorge' ^^
Este fichero es trabajo propio de su transcriptor y representa su interpretación personal de la canción. El material contenido en esta página es
para exclusivo uso privado, por lo que se prohibe su reproducción o retransmisión, así como su uso para fines comerciales.
© LaCuerda.net · Aviso Legal · Privacidad