Acordes de Guitarra » R »Reik » Llegó tu amor (Tab)

Llegó tu amor
Reik

Letras, Acordes y Tabs para Guitarra, Bajo y Ukulele

  •         C          Em         Am          G
     e|----4-7----|-----7----|-----7----|-------4--|---5---|
     B|--------5--|---7---4--|---5---5--|---4-7----|---5---|
     G|-----------|----------|----------|----------|---4---|
     D|-----------|----------|----------|----------|---4---|
     A|--7--------|-6--------|-4--------|----------|---6---|
     E|-----------|----------|----------|-3--------|---7---|
    
           C          Em         Am          G
     e|----4-7----|-----7----|-----7----|---5---|
     B|--------5--|---7---4--|---5---5--|---5---|
     G|-----------|----------|----------|---4---|
     D|-----------|----------|----------|---4---|
     A|--7--------|-6--------|-4--------|---6---|
     E|-----------|----------|----------|---7---|
    
    
    C   Em     Am
     Llego tu amor
       G         C     Em     Am   G
    
  • A ♥ J
    INTRO: E B C#m B
    
     E  B      C#m7
     Llego tu amor
      B          E      B   C#m7   B
     Y en un instante me atrapo.
     E    B    C#m7 B      E      B       C#m7  B
     Sin preguntar sin un aviso quiso entrar
     E          B         C#m7   B
     Al fondo de este corazón herido,
     E          B           C#m7  B
     Que ahora siente con cada latido.
     E  B      C#m7
     Oigo una voz
      B      F#
     Diciéndome
                              A
     Que todo va a estar muy bien,
               B         E
    
  • e-----7-------7-------7-------------------
    B---9-------7-------5----------7--9-------
    G-9----9--8----8--6-----6----8------------
    D--------------------------9--------------
    A-----------------------------------------
    E-----------------------------------------
    
    e-----7-------7-------7------7------------
    B---9-------7-------5--------0------------
    G-9----9--8----8--6-----6----8------------
    D----------------------------9------------
    A-----------------------------------------
    E-----------------------------------------
    
    ( con punteo )
    
    *Llego tu amor y en un instante me atrapó
    sin preguntar sin un aviso quizo entrar
    en fondo de este corazon herido
    que ahora siente con cada latido
    
  • +
    ¡Colabora con nosotros!
    Envíanos tu versión de esta canción
  • Tutorial
    Como Tocar Llego tu amor Reik Tablatura + Acordes Originales HD
    5:39

Letra de Llegó tu amor
Llego tu amor
y en un instante me atrapo.
Sin preguntar sin un aviso quiso entrar
al fondo de este corazón herido,
que ahora siente con cada latido.
Oigo una voz diciéndome que todo va a estar muy bien,
que no lo deje escapar.
Siento volar
cuando estas tu.
Siento tocar el cielo azul
Sin duda todo es por ti
Quiero alcanzar
lo que soñé.
Quiero besar
lo que anhele, no hay mas que decir.
Me he enamorado de ti
Llego tu amor
Y me hizo fuerte en el dolor
Sin preguntar
Sin pedir nada me curo
El fondo de este corazón herido
Que ahora vive con cada latido
Oigo una voz diciéndome que todo va a estar muy bien
que no lo deje escapar
Siento volar
cuando estas tu.
Siento tocar el cielo azul
Sin duda todo es por ti
Quiero alcanzar
lo que soñé.
Quiero besar
lo que anhele, no hay mas que decir.
Me he enamorado de ti




[Llegó tu amor chords][Llegó tu amor cifra]
© LaCuerda.net · aviso legal · privacidad · es · en · pt · contacto