Acordes de Guitarra » R »Reik » Fui (Tab)

Fui
Reik

Letras, Acordes y Tabs para Guitarra, Bajo y Ukulele

  • A
    Hoy,
              E
    Con el dolor,
               C#7           F#m
    Llega el fantasma de tu voz,
    E       B
    Diciéndome,
           D        E
    Ya no llores amor.
    
    A
    Soy,
            E
    Un eslabón,
                C#7           F#m      E
    Que se ha perdido entre tú y yo.
          B
    Por favor,
           D            E           A
    
  • D#             SIbmol
    Hoy, con el dolor
    
                   G7
    llega el fantasma
    
            Cm
    de tu voz
    
     SIbmol   F
    diciendome...
    
        G#           SIbmol
    Ya no llores amor......
    
    D#          SIbmol
    Soy Un eslabón
    
              G7
    que s ha perdido
    
  • D
    Hoy,
              A
    Con el dolor,
               F#7           Bm
    Llega el fantasma de tu voz,
    A       E
    Diciéndome,
           G        A
    Ya no llores amor.
    
    D
    Soy,
            A
    Un eslabón,
                F#7           Bm       A
    Que se ha perdido entre tu y yo.
          E
    Por favor,
           G            A           D
    
  • Intro: D
    
    I
    D
    Hoy,
              A/C#
    Con el dolor
                Emº/C#       Bm7
    llega el fantasma de tu voz
       A    G
    diciemdome
          Em7      G/A
    ya no llores amor.
    
    II
    D
    Soy,
           A/C#
    un eslabon
                 Emº/C#
    
  •     D    Amaj7   Caug Gmaj7  Bm/G#   G
    e|--5------4------x-----x------x-----3---
    B|--7------5------5-----3------3-----3---
    G|--7------6------3-----4------4-----4---
    D|--7------7------5-----5------4-----5---
    A|--5------4------4-----0------0-----5---
    E|----------------------5------4-----3---
    
    --Glosario Intro--
       D/A  D/G
    1|--2----2-----------------------
    2|--3----3------------------------
    3|--2----2---------------------
    4|--x----x---------------------
    5|--0----x------------------------
    6|-------3-------------------------
    
    Intro:
    
      D               D/A               D/G                D/G
    
  •      RE#  DO*  DO** SIm  LA SOl  MIm MIm7 SOL* SOL**  SOL***  RE*
    e----5----4----X----2----0---3----o---0----x----x------0-------0----|
    B----7----5----5----3----2---3----0---3----3----2------3-------2----|
    G----7----6----3----4----2---0----0---0----4----4------4-------2----|
    D----7----7----5----4----2---0----2---2----5----5------4-------x----|
    A----5----4----4----2----0---2----2---2----x----x------0-------4----|
    E----X----X----X----X----X---3----X---x----5----5------4-------x----|
    
    
    
    Intro :
    
    e-------2-2--------------2-2--------------2-2--------------2-2------|
    B-----3-----3---3------3-----3----------3-----3---3------3-----3----|
    G---2---------2------2---------2-------2--------2------2---------2--|
    D-0-----------------------------------------------------------------|
    A-----------------0-------------------------------------------------|
    E-------------------------------------3--------------3--------------|
    
    e-------2-2--------------2-2--------------2-2--------------2-|
    
  • Intro : RE             RE/LA                RE/SOL         RE/SOL
    
    1|-------2-2--------------2-2--------------2-2--------------2-2------|
    2|-----3-----3----------3-----3----------3-----3----------3-----3----|
    3|---2---------2------2---------2-------2--------2------2---------2--|
    4|-0-----------------------------------------------------------------|
    5|----------------0--------------------------------------------------|
    6|-------------------------------------3--------------3--------------|
    
        Arpegio :
    
           RE#    -    DO*     -   DO**   -  SIm          LA    SOL      MIm
    1|-----------------------------------------------------------3--------0---
    2|--7---7-----5------5------5----5-----3-------3------2------3--------0---
    3|-----7-7---------6--6---------3--------4----4-------2------O--------0---
    4|----7---7------7-----7-------5----------4--4--------2------0--------2---
    5|--5---------4-------------4----------2--------------0------2--------2---
    6|-----------------------------------------------------------3------------
        SOL*   SOL**
     -----x------x------|
    
  • +
    ¡Colabora con nosotros!
    Envíanos tu versión de esta canción
  • Tutorial
    como tocar fui de reik guitarra tutorial
    16:42

Letra de Fui
Hoy,
Con el dolor,
Llega el fantasma de tu voz,
Diciéndome,
Ya no llores amor.
Soy,
Un eslabón,
Que se ha perdido entre tu y yo.
Por favor,
Sólo llévate el silencio que quedó.
Fui,
Fuego por ti,
Hoy sólo quedan las cenizas,
Los restos de mí.
Fui,
Todo y sin ti,
Desaparezco poco a poco y me perdí,
Dentro de mí.
Fue,
Frío el adiós,
La despedida de los dos,
Por favor,
Sólo llévate el silencio que quedó.
Fui,
Fuego por ti,
Hoy sólo quedan las cenizas,
Los restos de mí.
Fui,
Todo y sin ti,
Desaparezco poco a poco y me perdí,
A tu lado fui,
Tan fuerte,
Nunca imaginé,
Perderte,
No … no no no uoh
otro tono mas agudo
Fui,
Fuego por ti,
Hoy sólo quedan las cenizas,
Los restos de mí.
Fui,
Todo y sin ti,
Desaparesco poco a poco y me perdí,
Dentro de mí
Dentro de mí




[Fui chords][Fui cifra]
© LaCuerda.net · aviso legal · privacidad · es · en · pt · contacto