Acordes de Guitarra » R »Reik » Como te imaginé (Tab)

Como te imaginé
Reik

Letras, Notas, Punteos, Tablaturas y Acordes de Guitarra (Tabs & Chords)

  • Letra y Acordes
    SIm-SOL-RE-LA
    SIm-SOL-RE-La…
    
    Canción:
    
    RE                   SOL
    Sabes, no pido nada más
                            RE
    que estar entre tus brazos
                    SOL
    y huir de todo mal
            MI          RE
    que ah todo eh renunciado
          LA
    por estar junto a ti..
    
    Sabes no dejo de pensar
    que estoy enamorado
    te Quiero confesar
    que soy solo un esclavo
    
  • Tablatura
          Bm         G         D        A
    e----------------------------0-----------------------|
    b-------2----------------------3----2---0------------|
    g---------4----------------2--------------2----------|
    D-----4-----------7-5----0------------2--------------|
    A---2-----------5-------------------0----------------|
    E-------------3--------------------------------------|
    
          Bm           G        A
    e----------------------------------------------------|
    b-------2--------------------0-----------------------|
    g---------4--------------------0-0h2-----------------|
    D-----4-----------7-5------2-------------------------|
    A---2-----------5--------0---------------------------|
    E-------------3--------------------------------------|
    
    
    (Verso 1)
    *Nota:
    *El primer verso YO lo toco arpegiado y a mi parecer se oye
    
  • Tablatura
         Cm   G#   D#   A#   Fm
    e----3----4----3----1----1----|  NOTA: Para hacerlo mas facil la cancion
    B----4----4----4----3----1----|     pueden ponerle un capo en el primer
    G----5----5----3----3----1----|     traste ojo que cambiaria la forma de
    D----5----6----5----3----3----|     pisar los acordes Ejemplo ya no tienen
    A----3----6----X----1----3----|     que hacer G# solo G en Cm Bm etc.
    E----X----4----X----X----1----|
    
    INTRO:
    
        Cm        G#         D#         A#
    e----------------------------------------------------|
    B-------4---------4----------4----------3------------|
    G---------5---------5------3---3----------3----------|
    D-----5---------6--------5----------3----------------|
    A---3---------------------------------1--------------|
    E-------------4--------------------------------------|
        Cm        G#         D#         A#
    e----------------------------------------------------|
    B-------4---------4----------4------3----------------|
    
  • +
    ¡Colabora con nosotros!
    Envíanos tu versión de esta canción

Letra de Como te imaginé
Canción:
Sabes, no pido nada más
que estar entre tus brazos
y huir de todo mal
que ah todo eh renunciado
por estar junto a ti..
Sabes no dejo de pensar
que estoy enamorado
te Quiero confesar
que soy solo un esclavo
que no sabe vivir sin ti…
Cuando llegaste tú
te metiste en mi ser
Encendiste la luz
me llenaste de fe
tanto tiempo busque
pero al fin te encontré
tan perfecta como te imagine…
Como aguja en un pajar
te busque sin cesar
como huella en el mar
tan difícil de hallar
tanto tiempo busque
pero al fin te encontré
tan perfecta como te imagine
canción:
sabes te quiero confesar
que te encuentro irresistible
no dejo de pensar
que haría lo imposible
por quedarme cerca de ti…
Cuando llegaste tu
te metiste en mi ser
encendiste la luz
me llenaste de fe
tanto tiempo busque
pero al fin te encontré
tan perfecta como te imagine
Como aguja en un pajar
te busque sin cesar
como huella en el mar
tan difícil de hallar
tanto tiempo busque
pero al fin te encontré
tan perfecta como te imagine
sabes, no pido nada mas que estar entre tus brazos…
dedicada al amor de mi vida, pato…sabes que es para vos mi amor…



© LaCuerda.net · Aviso Legal · Privacidad