Acordes de Guitarra » R »Reik » Como me duele (Tab)

Como me duele
Reik

Letras, Acordes y Tabs para Guitarra, Bajo y Ukulele

  • e|-----------------------------3333--3-2---3-2---
    B|-----------------------------3333------3-----3-
    G|-------0-----------0---------0000--------------
    D|----4-----4-----4-----4------2222--------------
    A|-7-----------5-----------5---3333--------------
    E|-----------------------------------------------
    
    Esto es lo de la segunda guitarra al momento en que
    la primera hace los rasgueos del acorde [Cadd9]
    
    e|-3---2-
    B|---2---
    
    Esto lo hace otra vez la primer guitarra al terminar de
    hacer los rasgueos del acorde
    
    e|-----------------------------0-
    B|-----------------------------3-
    G|-------0-----------0---------0-
    D|----4-----4-----4-----4------2-
    
  • Em C Em C
    [Verso 1]
    Se me termina el tiempo,
    Em               C
    ya no puedo estar un dia mas sin ti,
          Em                         C
    ya las lágrimas empiezan a salir...
           Em                     C
    He comenzado a ver lo bello de un
            Em     C
    principio,
    y lo triste de un final...
         Em     C
    [Coro]
    Pero como me duele, el miedo a
         C
    tenerte,
    como tenerte? si ya me duele
    G                      Em
    perderte...
    
  •   Em/D           C9
    se mete en mi el tiempo
         E5/D                E4/D
    ya no puedo estar un dia mas sin ti
      Em/D           C9
    ya las lagrimas empiezan a salir
         E5/D                E4/D
    y eh comenzado a ver lo bello de un prinzipio
      Em/D           C9
    y lo triste de un final
    
    1-------0--
    2-------3--  un inter
    3-----2----  antes del coro
    4---4------
    5----------
    6----------
    
    (esta parte que sigue tocanla con feeling=sentimiento)
    
    
  • Em7                Dadd9
       se me termina el tiempo
             Em7                        Dadd9
       ya no puedo estar un dia mas sin ti
              Em7                 Dadd9
       ya las lagrimas empiezan a salir.
               Em7    Dadd9
       eh comenzado a ver lo bello de un principio
           Em7          Dadd9
       y lo triste de un final
    
    1|----------
    2|-------3--
    3|-----0----
    4|---4------
    5|----------
    6|----------
    
    CORO
    
    
  • G1 - x 2 2 0 3 2
    Cadd5 - 3 2 0 3 3
    G - 3 2 0 0 3 3
    D2 - x 0 0 0 3 2
    
    *--------------------------*
    |RB:Rasgueo hacia abajo    |
    |h: Hammer o  martilleo    |
    |p: pull off o jalar,      |
    |   pero se escucha bien   |
    |   solo soltandola        |
    *--------------------------*
    
    
    
    Intro - GUITARRA Acustica                          Intro - GUITARRA Elect
    ----------------------------------------------   ---------------------
    -7---5---5--3--------------------7---5---5--3-   ---------------------
    --4-4-0-4---2---------------------4-4-4-4---2-   ---------------------
    ---0---0----0--------0---------0---0---0----0-   ---------------------
    
  • Esta es la introduccion de como me duele sesion metropolitana,
    ---------------------------0-------------------------2--0--------------
    ---------0---------------3---1-----0-------------------0------1p0h1----
    ---0---0---0----0------0---------0---0------0-----------------0--------
    -2---4---------4-----2--------------------4---4--2---2--------2--------
    --------------------------------------------------------------3--------
    -----------------------------------------------------------------------
    
    ----------------------------------2--------------------5----2--------0-
    ----------------------------------3-------------3-------3----3------3--
    -0---0-------0--------------------0-----------0---0------0----0----0---
    --4s5--5-4-2---2-------0----------2------------------------------------
    ---------------------3---3-2----------------3--------------------3-----
    -----------------------------------------------------------------------
    
    ----------------------------------------------------------7------------
  • +
    ¡Colabora con nosotros!
    Envíanos tu versión de esta canción

Letra de Como me duele
Esto es lo de la segunda guitarra al momento en que
la primera hace los rasgueos del acorde [Cadd9]
Esto lo hace otra vez la primer guitarra al terminar de
hacer los rasgueos del acorde
Se me termina el tiempo
Ya no puedo estar un dia mas sin ti
Ya las lagrimas empiezan a salir
He comenzado a ver lo bello de un principio
Y lo triste de un final
Cadd9/G
Pero como me duele el miedo a tenerte
Como tenerte si ya me duele perderte
Cadd9/G
Pero como me duele el miedo a tenerte
Como tenerte si ya me duele perderte, ehhh
Me duele perderte
GUITARRA
Em7/F#
Tu abrazo es un respiro
Con un beso me mantienes vivo
Tu mirada es un bello amanecer, ehhh
Si tanto he esperado poder sentir algo tan grande
Es muy triste ver su final
Si tanto he esperado poder sentir algo tan grande
Es muy triste ver su final
ACORDES:




[Como me duele chords][Como me duele cifra]
© LaCuerda.net · aviso legal · privacidad · es · en · pt · contacto