Acordes de Guitarra » R »Raul Ornelas » Quien te dio permiso (Tab)

Quien te dio permiso
Raul Ornelas

  • Letra y Acordes
    Dmaj7
     Con que derecho me quitas el sueño
    C#m7
     Con que derecho te me vas  metiendo
    Bm7
     Dime con que derecho
    Dm7                 M7
     Tocas mi lado izquierdo
    
    Dmaj7
     La cosa eran unos cuantos besos
    C#m7
     Matar las ganas y perdernos luego
    Bm7                    Dm7                M7
     Pero mis sentimientos confundieron el juego
    
                   Dmaj7        C#m7
     Y contra los pronosticos estas aquí
        Bm7              Amaj7 A7
     En mi cabeza atravesada
    
  • Letra y Acordes
         Dm7         C#m7           Bm7           M7
    e|----2--0--2---------7-------------x-----2----0--0---0----|
    B|----2--2--2-----5---5----------3--x--3--3----0--0----0---|
    G|----2--2--2-----4---4----------2--x--2--2----1--1s2---2~-|X2
    D|----------------------------------x-----4----2--2--------|
    A|----------------4---4----------2--x--2--2----------------|
    E|---------------------------------------------------------|
    
    
     Dm7
    Con que derecho me quitas el sueño
    C#m7
     Con que derecho te me vas  metiendo
    Bm7
     Dime con que derecho
    Dm7                 M7
     Tocas mi lado izquierdo
    
    Dmaj7
     La cosa eran unos cuantos besos
    
  • Letra y Acordes
    A B7 B x2, A C7 B
    
    Interludio antes de comenzar el verso:
    
    e-------------------------
    B--------4-5-4-2-0--------
    G--4--6-------------6-----
    D----------------------4--
    A-------------------------
    E-------------------------
    
    VERSO:
    
    Bmaj7
     Con que derecho me quitas el sueño
    D#m7
     Con que derecho te me vas  metiendo
    Amaj7
     Dime con que derecho
    C#m7                 F#m
    
  • Tablatura
      Dmaj7    C#m7   Bm7 E   Amaj7
    e--2--0--2-----7-------------0-----0---I
    B--2--2--2--5--5--3--0-0--2--2--0h2----I
    G--2--2--2--4--4--2--1-1--1--1---------I
    D--0--0--0--6-----4--2-2--2------------I
    A-----------4--4--2-------0-----0------I
    E--------------------0-0---------------I
    
    (acá entra el punteo de la guitarra 2:)
    
    
      Dmaj7    C#m7   Bm7           E    E7
    e--2--0--2-----7----------------0----2--0---I
    B--2--2--2--5--5--3----3--3-----------------I
    G--2--2--2--4--4--2----2--2--1h2---2----1---I
    D--0--0--0--6-----4----4--4-----------------I
    A-----------4--4--2----2--2-----------------I
    E----------------------------0----------0---I
    
    
    
  • Tablatura
    Emaj7 D#m7 C#m7 B Bsus4
    Emaj7 D#m7 C#m7 B Bsus4
    
    riff intro
         Emaj7           D#m7           C#m7          B Bsus4
    E------------------------------------------------------------
    A--------------9s11-------------9------------7---------------
    D----p8-9-11---------p6-8-9--------p4-6 7---------4-p6-7-p9--
    G------------p8-------------p6-----------p4------------------
    B------------------------------------------------------------
    e------------------------------------------------------------
         Emaj7           D#m7           C#m7       F#           B Bsus4
    E---------------------------------------------------------------
    A--------------10s8-------------9------------7------------------
    D----p8-9-11---------p6-8-9--------p4-6 7------7s9--------11s13-
    G------------p8-------------p6-----------p4--------11p9-8-------
    B---------------------------------------------------------------
    e---------------------------------------------------------------
    
    Bmaj7
    
  • +
    ¡Colabora con nosotros!
    Envíanos tu versión de esta canción

Letra de Quien te dio permiso
Con que derecho me quitas el sueño
Con que derecho te me vas metiendo
Dime con que derecho
Tocas mi lado izquierdo
La cosa eran unos cuantos besos
Matar las ganas y perdernos luego
Pero mis sentimientos confundieron el juego
Y contra los pronosticos estas aquí
En mi cabeza atravesada
Y contra los pronosticos estoy aquí
Dandole besos a tu fantasma
Quien te dio permiso
De aterrizar sobre la nube que piso
Quien te dio permiso
Para quedarte a dormir, para quedarte a vivir
En cada parte de todo mi edificio
Mi corazon esta temblando de miedo
Y elno tenia vela en el entierro
Pero sin darse cuenta
Se coloco en el juego
Este boleto no tenia regreso
Aunque llegaramos bastante lejos
Pero mis sentimientos violaron el acuerdo
Y contra los pronosticos estas aquí
En mi garganta a travesada
Y contra los pronosticos estoy aquí
Tomando vino con tu fantasma
Quien te dio permiso
De aterrizar sobre la nube que piso
Quien te dio permiso
Para quedarte a dormir, para quedarte a vivir
En cada parte de todo mi edificio-o-o
Dime quien te dio permiso de entrar asi
Sin decirme nada de ti
Dime quien te dio permiso
De aterrizar sobre la nube que piso
Quien te dio permiso
Para quedarte a dormir, para quedarte a vivir
En cada parte de todo mi edificio-o-o
En cada parte de todo mi edificio



© LaCuerda.net · aviso legal · privacidad · contacto