Acordes de Guitarra » R »Raul Ornelas » Hasta la camisa (Tab)

Hasta la camisa
Raul Ornelas

Letras, Acordes y Tabs para Guitarra, Bajo y Ukulele

  •         F#m
    Y aquì estoy
                       Bm
    completamente como soy
                       E7
    sin equipo de protecciòn
                            A
    con toda la ilusiòn prendida.
    
     (I)
    
    Aqui voy
    abriendo todo el corazòn
    para que entres sin precauciòn
    y no busques una salida.
    
     (II)
    
    F#m
    Esta vez
    
  •        Gm
    Y aquì estoy
                       Cm
    completamente como soy
                       F
    sin equipo de protecciòn
                            A#
    con toda la ilusiòn prendida.
    
     (I)
    
    Aqui voy
    abriendo todo el corazòn
    para que entres sin precauciòn
    y no busques una salida.
    
     (II)
    
    Gm
    Esta vez
    
  •            F#m9    Bm7   Esus4   E     Amaj7 C#7sus4 C#7    X 2
    
    
    e-------2-4-4---4-2---------2-5---5-4---------2-5---5-4---7-5-4-4-4----4
    B---2-3-------2-----2-2---2-----3-----3-3---3---5-5-----3------------4--
    G-4---------------------2-----------------2-----------------------------
    D-----------------------------------------------------------------------
    A-----------------------------2-------------------------------0-0-0----4
    E-----------2-----------------------------------0--------------------4--
    
    
    
    e-4---4-2---------2--5---5-4---------2-5---5-4---7-5-4---4---------4
    B---2-----2-2---2------3-----3-3---3---5-5-----3-------7---5-----7--
    G-------------2------------------2-----------------------------4----
    D-------------------------------------------------------------------
    A--------------------2-------------------------------0-------4------
    E-2------------------------------------0----------------------------
    
    
    
  •     C#7               F#m                Bm7
    e|---0---------1--5--4-4-4p2-------2-4-4/5-5-5p4-------------------
    b|---2-----2-3----------------2--2---------------3-----------------
    g|---4---4---------------------------------------------------------
    D|---3-------------------------------------------------------------
    A|---4-------------------------------------------------------------
    E|---0-------------------------------------------------------------
    
         E                   AM7              D7*   C#7
    e|---2-4-5-5p4----5/7-5--4--4-4---2/4-5----------------------------
    b|-3-----------3-------------------------------------------------
    g|-----------------------------------------------------------------
    
        C#7               F#m                Bm7
    e|----------------1--5--4-4-4p2---------2-4-4/5-5-5\4--------------
    b|-RAPIDO-0-0-2-3-----------------2--2----------------3-----------
    g|-----------------------------------------------------------------
    
         E                   AM7              D7*   C#7
    e|---2-4-5-5p4----5/7-5--4--4-4---2/4-5----------------------------
    
  • +
    ¡Colabora con nosotros!
    Envíanos tu versión de esta canción
  • Tutorial
    HD
    Como tocar HASTA LA CAMISA en guitarra acustica
    14:16

Letra de Hasta la camisa
Y aquì estoy
completamente como soy
sin equipo de protecciòn
con toda la ilusiòn prendida.
(I)
Aqui voy
abriendo todo el corazòn
para que entres sin precauciòn
y no busques una salida.
(II)
Esta vez
quiero ser
el que baile por tu amor
en la cornisa,
el que apostara por ti
hasta la camisa.
(III)

Por ti daria media vida
por ti mi libertad arriesgarìa
por ti tambièn me tatuarìa
por ti no sabes todo lo que harìa.
(III)
Por ti el cigarro dejarìa
por ti mi mal humor lo cambiarìa
por ti no me cuestionarìa
por ti sin duda yo me casarìa
por ti.
(I)
Aqui estoy
completamente como soy
sin signos de interrogaciòn
sin miedos tras de la sonrisa.
(II)
Esta vez...




[Hasta la camisa chords][Hasta la camisa cifra]
© LaCuerda.net · aviso legal · privacidad · es · en · pt · contacto