Acordes de Guitarra » R »Raúl García Zárate » El condor pasa (Tab)

El condor pasa
Raúl García Zárate

Letras, Acordes y Tabs para Guitarra, Bajo y Ukulele

  • 1º|--------|--------------------------|--0------------3----|
    2º|--------|-----------0--1--0--1--3--|--------------------|
    3º|--------|--2--1--2-----------------|--------------------|
    4º|-----2--|--2-----------------------|--------------------|
    5º|--------|--------------------------|--3-----------------|
    6º|--------|--------------------------|--------------------|
    
    
    --0------------5--3--|--0------------------|---------------------|
    ---------------------|---------------3--1--|---------------3--1--|
    ---------------------|---------------------|--2------------------|
    ---------------------|---------------------|--2------------------|
    --3------------------|--3------------------|---------------------|
    ---------------------|---------------------|---------------------|
    
    
    ---------------------|--------------------------|--0------------3----|
    ---------------------|-----------0--1--0--1--3--|--------------------|
    --2------------------|--2--1--2-----------------|--------------------|
    --2---------------2--|--2-----------------------|--------------------|
    
  • E:......................................
    B:................................1.....
    G:.2.0.............2.0...............2..
    D:.....2.0...0.2.2.....2.0...2..0.......
    A:.........3...............3............
    E:......................................
    
    TEMA
    
    E:...0...0.2.3.2.3.5.7..3....0...................
    B:.0...4................3.0....3.0.0.............
    G:........................0..........2.0.2.0.....
    D:............................................2.. SE REPITE
    A:...............................................
    E:...............................................
    
    E:..................................
    B:....................0.1.0...0.....
    G:..2.1.2.1.2.1.2.1.2.......2...0...
    D:.2..............................2.SE REPITE
    
  • +
    ¡Colabora con nosotros!
    Envíanos tu versión de esta canción

Letra de El condor pasa
B:................................1.....
D:.....2.0...0.2.2.....2.0...2..0.......
TEMA
E:...0...0.2.3.2.3.5.7..3....0...................
G:........................0..........2.0.2.0.....
B:....................0.1.0...0.....
D:.2..............................2.SE REPITE
PASACALLE ( OSEA LA PARTE RAPIDA )
G:................................0......................
A:...0...0.2.3.2.3.......................................
Y YO SOLO SE HADTA AHI
NO SE OLVIDEN DE PUBLICAR LAS PARTITURAS K SEPAN

Video de El condor pasa
[]




[El condor pasa chords][El condor pasa cifra]
© LaCuerda.net · aviso legal · privacidad · es · en · pt · contacto