Acordes de Guitarra » R »Raúl García Zárate » Ciudad del lago (Tab)

Ciudad del lago
Raúl García Zárate

Letras, Acordes y Tabs para Guitarra, Bajo y Ukulele

  • Este es el arreglo para guitarra del Maestro Raul Garcia Zarate
    de la célebre marinera puneña "ciudad del lago"
    Disfrutenla.... cualquier cosa escribirme a dmfaqp@hotmail.com
    
    
    e|------------------|-----------------------|-----1-----0-----0--|
    B|------------------|-0-------------------3-|--3-----1-----0-----|
    G|----------2--1--2-|----1h-2p-1h-2p-1------|--------------1-----|
    D|-------2----------|-------------------2---|--0-----------------|
    A|-----3------------|-----------------------|--------3-----------|
    E|---5--------------|-----------------------|--------------4-----|
    
    |--------------------|--------0--5--4--5--|--7---4-4-4----0----|
    |------1-1-1-1-------|------1-------------|--------------------|
    |--2---2-2-2-2--2----|--2-----------------|--------------------|
    |------2-2-2-2--2----|--------2--7--5--7--|--9-------6----2----|
    |--0-----------------|--0---3-------------|--------------------|
    |--------------------|--------------------|--------------------|
    
    
    |--1-0-----0-------------|
  • +
    ¡Colabora con nosotros!
    Envíanos tu versión de esta canción



Video de Ciudad del lago
[]




[Ciudad del lago chords][Ciudad del lago cifra]
© LaCuerda.net · aviso legal · privacidad · es · en · pt · contacto