Acordes de Guitarra » R »Raúl García Zárate » Virgenes del sol (Tab)

Virgenes del sol
Raúl García Zárate

Letras, Acordes y Tabs para Guitarra, Bajo y Ukulele

  • Hola, somos Julio César y Cristian de 14 años, estudiamos en el
    colegio "Uriel Garcia", cursamos el 3ro de secundaria.
    Vírgenes del Sol del maestro Raúl García Zárate.
    Esta transcripcion es un producto de mucho  esfuerzo y dedicación.
    
    AFINACIÓN:
    
    6ta cuerda  Re
    Las demas afinación estándar.
    
    
    
    e|------------------------------|
    b|-3-3-3-3----------------10----|
    g|-2-2-2-2--2-2-2-2-------------|
    D|-0-0-0-0--0-0-0-0-------------|
    A|----------0-0-0-0-------------|
    D|------------------------0-----|
    
    e|-----------------------------------------------------------|
    b|--8-10-8-10-8----------------------------------------------|
    g|--------------10-7----7-10-7-10-7--------------------------|
    D|----------------------------------10-7---7-10-7-10-7-------|
    A|-----------------------------------------------------------|
    D|--0----0----0----0----0----0----0----0---0----0----0----0--|
    
    
    e|---------------------------------------|
    b|--9/10------9/10-----------------------|
    g|---------------------
  • +
    ¡Colabora con nosotros!
    Envíanos tu versión de esta canción



Video de Virgenes del sol
[]




[Virgenes del sol chords][Virgenes del sol cifra]
© LaCuerda.net · aviso legal · privacidad · es · en · pt · contacto