Acordes de Guitarra » R »Raúl García Zárate » Adiós pueblo de Ayacucho (Tab)

Adiós pueblo de Ayacucho
Raúl García Zárate

Letras, Acordes y Tabs para Guitarra, Bajo y Ukulele

  • Introduccion Corregida
    
    Bueno, aqui les traigo la intro de ADIOS PUBLO DE AYACUCHO del maestro
    RAUL GARCIA ZARATE. Bueno, o al menos lo que pude hacer o transcribirla,
    si esta mal, publiquenlo o manden la correcion a mi mail pes... Pues
    para toda la gente de la UNI, FIC q le gusta la guitarra:
    Pollo, Loko JHON, Dashiel, Eden, Recontra Noe, Maestro Jose, y para ti
    tambien CHARAPIN no te sulfures, que se te sale lo Munaylla, si no te
    nombro de ahi te pones a llorar...
    
    Para ti, YATUSA, siento q el mundo se vuleve mas AFIRMATIVO cuando te
    miro...
    
    Afinacion: Afinar la sexta cuerda en FA, lo demas afinacion STANDARD...
    
    Intro:
    
    |--------|-------|--------|--------|
    |-----10-|----6--|-----10-|----8p6-|
    |----9---|-----7-|----9---|------7-|
    |--------|-0-----|--------|-0------|
    |-0------|-------|-0------|--------|
    |--------|-------|--------|--------|
    
    |-5---5-0-3/5---3p1-----|-5---5-0-3/5---3p1-----|-5---5-0-3/5---3p1---|
    |---6---------------3/6-|---6---------------3/6-|---6---------------3-|
    |
  • 1º|--------------|--------------1--|-------1------|-------------|
    2º|-----------3--|--3---2-3---3----|--3------1----|--1----3--3--|
    3º|*-------2-----|-----------------|------------2-|-------------|
    4º|*-------------|-----------------|--------------|-------------|
    5º|--------------|-----------------|--------------|-------------|
    6º|--------------|-----------------|--------------|-------------|
    
    
    ----------------|-----------------|------------||--------------|
    --1--1-1--------|-----------------|------------||--------------|
    -----------2-0--|------0-2-0------|-----------*||*----------0--|
    ----------------|--3----------3---|--0--------*||*-------3-----|
    ----------------|-----------------|------------||--------------|
    ----------------|-----------------|------------||--------------|
    
    
    
    ----------------|--------------|-------------|----------------|
    -------------3--|--1----3-1----|--1----3--3--|--1--1-1--------|
    --2--0-2---2----|------------2-|-------------|-----------2-0--|
    
  • TAB|---------|---------|---------|---------|/TAB
    TAB|----10v--|----5/6--|----10v--|----6g8--|/TAB
    TAB|----9v---|----6/7--|----9v---|----7----|/TAB
    TAB|---------|-----0---|---------|----0----|/TAB
    TAB|----0----|---------|----0----|---------|/TAB
    TAB|---------|---------|---------|---------|/TAB
    -
    
    TAB|--------------------------|---------------------------|/TAB
    TAB|-10---10---8g10---8g6-----|-10---10---8g10---8g6------|/TAB
    TAB|----10---9------------7/9-|----10---9------------7/9--|/TAB
    TAB|----------------0---------|----------------0----------|/TAB
    TAB|---------0----------------|---------0-----------------|/TAB
    TAB|-0------------------------|-0-------------------------|/TAB
    
    
    TAB|--------------------------------------------------------------------|/TAB
    TAB|-10---10---8g10---8g6-----6/8---10g8----------8g6-----6-8g10--5--6--|/TAB
    TAB|----10---9------------6/7-----9--------6/7--------6/7---9-----6--7--|/TAB
    TAB|----------------0---------------------------0--------------------0--|/TAB
    
  • +
    ¡Colabora con nosotros!
    Envíanos tu versión de esta canción



Video de Adiós pueblo de Ayacucho
[]




[Adiós pueblo de Ayacucho chords][Adiós pueblo de Ayacucho cifra]
© LaCuerda.net · aviso legal · privacidad · es · en · pt · contacto