Acordes de Guitarra » P »los Prisioneros » La voz de los ochenta (Tab)

La voz de los ochenta
los Prisioneros

Letras, Acordes y Tabs para Guitarra, Bajo y Ukulele

  • SI              MI
      Algo grande está naciendo
    RE                LA
      En la década de los ochenta.
    
    Ya se siente la atmósfera
    Saturada de aburrimiento.
    Los hippies y los punk tuvieron la ocasión
    De romper el estancamiento.
    En las garras de la comercialización
    Murió toda la buena intención.
    
    Las juventudes cacarearon bastante,
    Y no convencen ni por sólo un instante.
    Pidieron comprensión, amor y paz
    Con frases hechas muchos años atrás.
    Deja la inercia de los setenta
    Abre los ojos, ponte de pie.
    Escucha el latido, sintoniza el sonido,
    Agudiza tus sentidos, date cuenta que estás vivo.
    
  •   SIm       MIm
     Algo grande esta naciendo
      RE             LA
     en la década de los 80
      SIm               MIm
     ya se siente en la atmosfera
      RE          LA
     saturada de aburrimiento
      SIm
     los hippies y lo punk
      MIm
     tuvieron la ocasión
      RE           LA
     de romper el estancamiento
      SIm                MIm
     de las garras de la comercialización
      RE           LA
     murió toda la buena intensión
    
    (itro)
    
  • Intro
    |-----------------|
    |-----------------|
    |-----------------|
    |-----1-1-2-2-4-4-|
    |-2-2-------------|
    |-----------------|
    
    Estrofa
    Tu pones el ritmo
    |---------|
    |---------|
    |-4-9-7---|
    |-4-9-7-7-|
    |-2-7-5-7-|
    |-------5-|
    
    Coro
    |---------|
    |---------|
    |-4-------|
    |-4-7-6-5-|
    |-2-7-6-5-|
    |---5-4-3-|
    
    Solo
    
    |----------------------------------------|
    |-----------9-12-9---7-9-10-7----5-7-8-5-|
    |---8-9-(11)-------9-----------7---------|
    |-9--------------------------------------|
    |----------------------------------------|
    |----------------------------------------|
    ()=se toca la segunda vez
    
    |-----------|
    |-----------|
    |---6-7-9-6-|
    |-7---------|
    |-----------|
    |-----------|
    
    |------------------------------------|
    |-----------9-----------7------------|
    |-11-8-9-11---9---9-7-9---7-----6----|
    |---------------9-----------7-9---7--|
    |------------------------------------|
    |------------------------------------|
    
    |---------------------------------|
    
  • E|-----------------------------------|
    B|-----------------------------------|
    G|-----------------------------------|
    D|-----------------------------------|
    A|----6-7-9----6-7-9---6-7-9---6-7-9-|
    E|--7--------7-------7-------7-------|
    
    
    Versos:
         B       E       D       A
    E|-2-----|-7-----|-5-----|-5------|
    B|-2-----|-7-----|-5-----|-5------|
    G|-2---4-|-7---9-|-5---7-|-5--6---|
    D|-2---4-|-7---9-|-5---7-|-5----7-|
    A|-2-----|-7-----|-5-----|-5----7-|
    E|-x-----|-7-----|-5-----|-5------|
    
    
    Versos:
    B             E 
    
  • E|-----------------------------------|
    B|-----------------------------------|
    G|-----------------------------------|
    D|-----------------------------------|
    A|----6-7-9----6-7-9---6-7-9---6-7-9-|
    E|--7--------7-------7-------7-------|
    
    
    Versos:
         B       E       D       A
    E|-2-----|-7-----|-5-----|-5------|
    B|-2-----|-7-----|-5-----|-5------|
    G|-2---4-|-7---9-|-5---7-|-5--6---|
    D|-2---4-|-7---9-|-5---7-|-5----7-|
    A|-2-----|-7-----|-5-----|-5----7-|
    E|-x-----|-7-----|-5-----|-5------|
    
    
    Versos:
    B             E
    
  • Bueno amigos, les envío la tablatura del bajo de Gonzalez.....
    para mi es un honor tocar estos temas...más aún 
    que ahora se juntan....nos vemos
    en el recital el 1 de diciembre.
    
    Introducción
    
    primero la guitarra y luego entra el bajo.
    
    -1------------------------|
    -2------------------------|
    -3----66-77-99----66-77-99|bis
    -4-77----------77---------|
    
    Algo grande esta naciendo en la decada de los 80
    -1-------------------------------------------------|
    -2-----------------66-77-99----44-55-77------------|
    -3----66-77-99--77----------55-------------44-55-77|
    -4-77-----------------------------------55---------|
    
    ya se siente ........
    idem
    
    intro:                                                 
    
    coro:	si, la, sol#m, sol			
    ya viene, la fuerza, la voz de los 80..la voz de los 80(fin coro)
    -1----------------------------------------------------|
    -2----------------------------------------------------|
    -3----------------------------------------------------|
    -4-7
  • *La voz de los '80*
    
    Quizá no sea la versión original pero 
    así la tocamos nosotros y nos suena muy bien.
    ------------------------------------------
    Simbologia:
    
                    |-x-| Hit Hat (cerrado)
    C = Platillos : |-&-| Crash
                    |-X-| Hit Hat (Pedal)
                  
    S = Caja      : |-o-| 
    
    B = Bombo     : |-0-|
    
    ------------------------------------------
    Intro :
    
    C|-----------------------------------------------------------------|
    S|-----o-o-----o-o-----o-o-----o-o-----o-o-----o-o-----o-o-----o-o-|
    B|-0-0-----0-0-----0-0-----0-0-----0-0-----0-0-----0-0-----0-0-----|
    
      (aquí entra el bajo y la Guitarra)
    C|-----x-x-----x-x-----x-x-----x-x-----x-x-----x-x-----x-x-----x-x-|
    S|-----o-o-----o-o-----o-o-----o-o-----o-o-----o-o-----o-o-----o-o-|
    B|-0-0-----0-0-----0-0-----0-0-----0-0-----0-0-----0-0-----0-0-----|
    
    Versos :
                                                                      
    C|-&---x---X---x---X---x---X---x---X---x---X---x---X---x
  • Glosario
    ........
    
    C (Plato Crash) = X:Normal
    R (Plato Ride)  = x:Normal
    H (Hi-Hat) = x:Normal O=Abrir Hi-hat
    S (Caja) = o:Normal; f:Flam;
    T (Tom) = o:Normal
    F (Tom de Piso-Timbal) = o:Normal
    B (Bombo) = o:Normal
    
    Bien, les dejo esta tab un poco mas corregida
    que las ya existentes. La mayoria de las tabs
    hechas indica que el plato hi-hat y Ride no
    se tocan porque dicen "que no hay", esto es
    totalmente erroneo, el platillo se escucha
    constantemente junto con la caja y el bombo
    DURANTE TODA LA CANCION.
    y ahi posiblemente puedan confundirlo.
    Espero que les sirva mucho mi tab, suerte.
    
     1.Introduccion
       ¨¨¨¨¨¨¨¨¨¨¨¨
       1.1
      (__1X__)
    R|xxxxxxxx|
    S|--oo--oo|
    B|oo--oo--|
    
       1.2
      (__4X__)
    R|xxxxxxxx|
    S|--oo--oo|
    B|oo--oo--|
    (Entra Guitarra y Bajo)
    (No confundir con intro del E.Nacional)
    
     2.Estrofa General
       ¨¨¨¨¨¨¨¨¨¨¨¨¨¨¨
    La notacion "O" que puse en el
    hi-hat es que tienes que abrirlo
    con el pie, diran que estoy
    equivocado, pero en la grabacion
    original se esc
  • +
    ¡Colabora con nosotros!
    Envíanos tu versión de esta canción

Letra de La voz de los ochenta
Algo grande está naciendo
En la década de los ochenta.
Ya se siente la atmósfera
Saturada de aburrimiento.
Los hippies y los punk tuvieron la ocasión
De romper el estancamiento.
En las garras de la comercialización
Murió toda la buena intención.
Las juventudes cacarearon bastante,
Y no convencen ni por sólo un instante.
Pidieron comprensión, amor y paz
Con frases hechas muchos años atrás.
Deja la inercia de los setenta
Abre los ojos, ponte de pie.
Escucha el latido, sintoniza el sonido,
Agudiza tus sentidos, date cuenta que estás vivo.
Ya viene, la fuerza,
La voz de los ochenta.
En Roma, Lima, en Santander
La gente de tu edad no sabe qué hacer.
Santiago, Asunción, y también Buenos Aires
Bueno, las cosas no están que arden.
Sangre latina necesita el mundo
Roja, furiosa y adolescente.
Sangre latina necesita el planeta,
Adiós barreras, adiós setentas.
Ya viene, la fuerza,
La voz de los ochenta.
En plena edad del plástico,
Seremos fuerza, seremos cambio.
No te conformes con mirar,
En los ochenta, tu rol es estelar.
Tienes la fuerza, eres actor principal.
De las entrañas de nuestras ciudades
Surge la piel que regirá al mundo.
Ya viene, la fuerza,
La voz de los ochenta.
Escucha el murmullo,
Algo se siente venir.
Los últimos vientos de los setentas,
Se mueren.
Mira nuestra juventud,
Qué alegría más triste y falsa...
Deja la inercia de los setenta
Abre los ojos, ponte de pie.
Escucha el latido, sintoniza el sonido,
Agudiza tus sentidos, date cuenta que estás vivo.




[La voz de los ochenta chords][La voz de los ochenta cifra]
© LaCuerda.net · aviso legal · privacidad · es · en · pt · contacto