Tablatura para Guitarra de los Prisioneros: La voz de los ochenta
Conexión · Inscripción
Letras y Acordes
Pantalla Completa
Imprimir
Versión Texto
Añadir Favorito
Otras Versiones

Mostrar Diagramas
Desfile Automático
Manipular Acordes
Formato del Texto


La voz de los ochenta(TAB)

los Prisioneros

calidad:
pris0173
AUTOR: Jorge Gonzalez
ALBUM: La voz de los ochenta (1983)
Enviado por Vicente
Intro
|-----------------|
|-----------------|
|-----------------|
|-----1-1-2-2-4-4-|
|-2-2-------------|
|-----------------|

Estrofa
Tu pones el ritmo
|---------|
|---------|
|-4-9-7---|
|-4-9-7-7-|
|-2-7-5-7-|
|-------5-|

Coro
|---------|
|---------|
|-4-------|
|-4-7-6-5-|
|-2-7-6-5-|
|---5-4-3-|

Solo

|----------------------------------------|
|-----------9-12-9---7-9-10-7----5-7-8-5-|
|---8-9-(11)-------9-----------7---------|
|-9--------------------------------------|
|----------------------------------------|
|----------------------------------------|
()=se toca la segunda vez

|-----------|
|-----------|
|---6-7-9-6-|
|-7---------|
|-----------|
|-----------|

|------------------------------------|
|-----------9-----------7------------|
|-11-8-9-11---9---9-7-9---7-----6----|
|---------------9-----------7-9---7--|
|------------------------------------|
|------------------------------------|

|---------------------------------|
|---------------------------------|
|---------------------------------|
|-----4-4-5-5-7-7-----4-4-5-5-7-7-|
|-5-5-------------5-5-------------|
|---------------------------------|

|----------------------------------|
|----------------------------------|
|----------------------------------|
|-----8-8-9-9-11-11-----8-8-9-9-11-|
|-9-9----------------9-9-----------|
|----------------------------------|

Bridge

|-------|
|-------|
|-------|
|-5-7-4-|
|-5-7-4-|
|-3-5-2-|

Final

|---------|
|---------|
|---------|
|--1-2-4--|
|-2-------|
|---------|

Eso es todo esta es la primera tab completa.
Este fichero es trabajo propio de su transcriptor y representa su interpretación personal de la canción. El material contenido en esta página es
para exclusivo uso privado, por lo que se prohibe su reproducción o retransmisión, así como su uso para fines comerciales.

© LaCuerda.net · Aviso Legal · Privacidad