Acordes de Guitarra » P »los Prisioneros » Tren al Sur (Tab)

Tren al Sur
los Prisioneros

Letras, Acordes y Tabs para Guitarra, Bajo y Ukulele

  • Am C/F x4
    
    Estrofa:
    
    Am            F
    Siete y media en la mañana
    Am              F
    Mi asiento toca la ventana
    Am                F
    Estacion central, Segundo Carro.
    Am              F
    Del ferrocarril que me llevara al sur...
    
    Riff:
    
    Am C/F x3
    
    
    Estrofa:
    
    
  •  Am               F              Am            F
    Siete y media en la mañana, mi asiento toca a la ventana
          Am            F
    Estación central segundo carro
            Am               F        (Am F)x 4
    del ferrocarril que me llevará al sur
       Am               F                Am        F
    Y ya estos fierros van andando y mi corazón está saltando
         Am          F              Am              F
    Porque me llevan a las tierras donde al fin podré de nuevo
    (solamente percusión)                             (Am F)x 4
    Respirar atento y hondo alegrías del corazón ah,ah,ah
       G           C  Am    Em            G
    Y no me digas pobre por ir viajando así
                         C  Am     Em      F     G
    No ves que estoy contento, no ves que voy feliz
    
    4x (Am F)
    (inter: teclado)
    
    
  • e--8~---------8~------|---------12~-8~--|
    B----------------10~--|-----------------|
    G------7-9-10---------|--7-9-10---------|
    D---------------------|-----------------|
    A---------------------|-----------------|
    E---------------------|-----------------|
    
    
    Verso 1:
    
     Am              F   
    Seis y media en la ma~ana
         Am            F
    mi asiento toca a la ventana
         Am             F
    estacion central segundo carro
            Am               F         Riff 1 x 2
    del ferrocarril que me llevara al sur.
    
    
    
  • INTRO
    
       Lam  FA x 4      Lam   FA     Lam   FA
    G-|-------------------------------------------------|
    D-|-------------------------------------------------|
    A-|-----------------0-0--0-------0-0--0-------------|
    E-|-------------131-----3-1-1-13-----3-1-1-13-------|
    
    
    A.
    
    Seis y media en la mañana?
    
        Lam   FA     Lam   FA
    G-|-----------------------------|
    D-|-----------------------------|
    A-|-0-0--0-------0-0--0---------|
    E-|-----3-1-1-13-----3-1-1-13---|    (todo el tiempo)
    
    
    C.
    
    Y no me digas?
    
        SOL         DO Lam Mim FA SOL
    G-|----------------------------------------------------|
    D-|----------------------------------------------------|
    A-|--------------3-30-00-000---------------------------|
    E-|-3-3-3-33-333-------------0-01-11-111-3-3-3-33-3333-|
    
    
    Feliz?
    
        SOL
    G-|------------------------------------------------|
    D-|------------------------------------------------|
    A-|------------------------------------------------|
    E-|-3-3-3-33-3333-3-
  •    3 3 3 3 4 3    <--- octava
       a-d-e-f-c-a    <--- punteado 
       
       3 3 3 4 4   
       d-e-f-e-c  
    
       3 3 3 4 3
       d-e-f-c-a
    
       3 3 3 4 4   
       d-e-f-e-c  
       
       3 3 3 4 3
       d-e-f-c-a
    
       3 3 3 4 4   
       d-e-f-e-c  
    
       3 3 3 4 3
       d-e-f-c-a
    
  • +
    ¡Colabora con nosotros!
    Envíanos tu versión de esta canción

Letra de Tren al Sur
Estrofa:
Siete y media en la mañana
Mi asiento toca la ventana
Estacion central, Segundo Carro.
Del ferrocarril que me llevara al sur...
Riff:
Estrofa:
Y ya estos fierros van andando
Y mi corazon esta saltando
Porque me llevan a las tierras
Donde al fin podre de nuevo.
(Rasgueo muteado)
Respirar, adentro y hondo, alegrias del corazon.
Respirar, adentro y hondo, alegrias del corazon.
Riff:
!Y no me digas! !pobre! por ir viajando asi
No ves que estoy !Contento! No vez que voy feliz
Estrofa:
Doce y media en la mañana
El olor se mete en la ventana
Son flores y mil animales
Que me dicen bienvenido al sur...
Riff:
Yo recuerdo a mi papito
Y no me importa estar solito
Porque me llevan a las tierras
Donde al fin podre de nuevo
Respirar, adentro y hondo, alegrias del corazon.
Respirar, adentro y hondo, alegrias del corazón.
!Y no me digas! !pobre! por ir viajando asi
No ves que estoy !Contento! No vez que voy feliz
Viajando en este tren, en este tren al sur...
!Y no me digas! !pobre! por ir viajando asi
No ves que estoy !Contento! No vez que voy feliz
Viajando en este tren, en este tren al sur...
Am / F x8 (Disminuyendo velocidad)
(Chasquidos)
Tren al sur x4
Tren al sur X8




[Tren al Sur chords][Tren al Sur cifra]
© LaCuerda.net · aviso legal · privacidad · es · en · pt · contacto