Acordes de Guitarra » P »Prince Royce » Darte un beso (Tab)

Darte un beso
Prince Royce

Letras, Acordes y Tabs para Guitarra, Bajo y Ukulele

  •      intro: A-B-C#m-C#m(2x)                         ANDRIK ESLAVA
    
    
     E               B              C#m   A
       Amarte como te amo es complicado
    
     E               B                C#m
       Pensar como te pienso es un pecado
    
     A                B             C#m
       Mirar como te miro está prohibido
    
     A                B            C#m
       Tocarte como quiero es un delito
    
       B
       Ya no sé qué hacer
       B
       Para que estés bien
        C#m
    
  • INTRO: (FA-SOL-LAm) X2
    
    
    
    
    
    DO             SOL           LAm
    amarte como te amo es complicado
    DO             SOL            LAm
    pensar como te pienso es un pecado
    FA            SOL            LAm
    mirar como te miro está prohibido
    FA           SOL             LAm
    tocarte como quiero es un delito.
    
    SOL
    ya no sé qué hacer
    SOL
    para que estés bien
    LAm
    
  • 1|---3----3---3-----------------|
    2|---4/5--5-------4p3----3------|
    3|-------------------5-----5----|
    4|------------------------------|
                             F                 G
    1|------------------------|------------------|
    2|-----0h1p0--------------|--1p0-----1-------|
    3|------------2-0-0h2-----|-------2-----2s4--|
    4|-(2)----------------(3)-|------------------|
    
                            Am
    1|------------------------|------5-----------|
    2|-----0h1p0--------------|--4s5---4p3---3---|
    3|------------2-0--0h2----|------------5---5-|
    4|-(3)----------------(2)-|------------------|
    
                           F           G
    1|----------------------|-----5--3--|
    2|----0h1p0-------------|-----------|
    3|----------2-0-0h2-----|-4s5-------|
    
  • Patrón Nº1 (Intro):
    
    Dos veces...
    G|-----------------------------------------
    D|--------4-----4-4--------2-6-------------
    A|--0--4-----2------2-2-4------4--4-4---4-- x2
    E|------------------------------------4----
    
    G|-----1--4------------------------1-------
    D|--2------------1-1-4-4-1------2----------
    A|-----------2-2-----------2-4--------0-0--
    E|-----------------------------------------
    
    G|-----------2------
    D|-------2----------
    A|--4-4---------4---
    E|------------------
    
    
    G|-----1--4------------------------1--
    D|--2------------1-1-4-4-1------2-----
    A|-----------2-2-----------2-4--------
    E|------------------------------------
    
    G|----2--1---------|-
    D|----------4--2---|-
    A|--4--------------|-
    E|-----------------|-
    
    Patrón Nº2 (Estrofas):
    
    G|---------------------------------------
    D|-------2--------4-----------------6----
    A|--0--0---0-2--2---2-4--4-----4--4---4-- x2
    E|-------------------------4-4-----------
    
    Patrón Nº3 (Pre - Coro):
    
    G|---------------------------
    D|-------4---------
  • +
    ¡Colabora con nosotros!
    Envíanos tu versión de esta canción
  • Tutorial
    HD
    Como tocar Darte un Beso de PRINCE ROYCE en guitarra acustica Tutorial Acordes correctos
    8:50
  • Tutorial
    HD
    Como tocar Darte un Beso PRINCE ROYCE - SOLO GUITARRA - Tutorial (HD)
    5:25
  • Tutorial
    HD
    Como tocar Darte un Beso de PRINCE ROYCE en guitarra acustica COMPLETO+SOLO (HD)
    Tutorial
    8:17

Letra de Darte un beso
Amarte como te amo es complicado
Pensar como te pienso es un pecado
Mirar como te miro está prohibido
Tocarte como quiero es un delito
Ya no sé qué hacer
Para que estés bien
Si apagar el sol
para encender tu amanecer
Falar en portugués
Aprender a hablar francés
O bajar la luna hasta tus pies
Yo sólo quiero darte un beso
Y regalarte mis mañanas
Cantar para calmar tus miedos
Quiero que no te falte nada
Yo sólo quiero darte un beso
Llenarte con mi amor el alma
Llevarte a conocer el cielo
Quiero que no te falte nada
Si el mundo fuera mío te lo daría
Hasta mi religión la cambiaría
Por ti hay tantas cosas que yo haría
Pero tú no me das ni las noticias
Y ya no sé qué hacer
Para que estés bien
Para encender tu amanecer
Falar en portugués
Aprender a hablar francés
O bajar la luna hasta tus pies
Yo sólo quiero darte un beso
Y regalarte mis mañanas
Cantar para calmar tus miedos
Quiero que no te falte nada
Royce
Yo sólo quiero darte un beso
Llenarte con mi amor el alma
Sólo quiero darte un beso
Quiero que no te falte nada
Yo sólo quiero darte un beso
Llevarte a conocer el cielo
Sólo quiero darte un beso
Quiero que no te falte nada
Yo sólo quiero
Eh eh eh
Yo sólo quiero darte
Quiero que no te falte nada




[Darte un beso chords][Darte un beso cifra]
© LaCuerda.net · aviso legal · privacidad · es · en · pt · contacto