Acordes de Guitarra » P »los Piojos » Solo y en Paz (Tab)

Solo y en Paz
los Piojos

Letras, Acordes y Tabs para Guitarra, Bajo y Ukulele

  • -------------------------------------------------------||
    ---------------------------------1p0h1h2h3-----3/5-----||
    -------------------------------2-----------2-------4---||
    -5/7\6-5-4/5\4-3-2/3-----2---2---------------2-------6-||
    ---------------------3-2---3---------------------------||
    -------------------------------------------------------||
     Am                  F          E                                             
    
    
    Intro: Riff(x 2)
    
    Am               F                 E
      Mira que bien, se hizo de noche
    Am              F               E
      Humo y ardor, ningún reproche
    Am               F              E
      En el cristal dejas tu hielo
    Am                F               E         Am      
      Te gusta andar por mi mejor lugar.
    
    
  • E/A           E/B
    Mira que bien se  hizo de noche
    Humo y ardor ningún reproche
    En el cristal dejas tu hielo      Em + intro. 1 vez
    Te gusta andar por mi mejor lugar
    
    E/A         E/B
    Mi corazón se va de pista
    Tanto color hay a la vista
    Cuando bailas no queda nada  Em  
    Solo mi piel ilusionada     y si...
    
    LA                      Em
    Nos volvemos algo locos y mas
    LA
    Queriendo sobrevivir
    Em    LA
    Sabes me hiciste cómplice de todo
    Em
    Todo eso me hiciste
    
  • ----------------------------------------
    ----------------------------------------
    --1-2-1-0-------------------------------
    ----------4-4-5-4-3-2-2-3-------2-------
    ---------------------------3-2----------
    ----------------------------------------
    
    ---------------------------------------
    --------1-0-1-2-3-----3-5-0------------
    ------2-----------2---------1----------
    ----2---------------3------------------
    --3------------------------------------
    ---------------------------------------
    
    LAm            FA7           MI7
      Mirá que bien,  se hizo de noche
    LAm     LAm/SOL FA7         MI7
      humo y ardor,   ningún reproche
    LAm            FA7         MI7
      en el cristal  dejás tu hielo
    
  • +
    ¡Colabora con nosotros!
    Envíanos tu versión de esta canción

Letra de Solo y en Paz
Mira que bien, se hizo de noche
Humo y ardor, ningún reproche
En el cristal dejas tu hielo
Te gusta andar por mi mejor lugar.
Riff
Mi corazón se va de pista,
Tanto color hay en la pista,
Cuando bailas no queda nada,
Nos volvemos algo locos y mas
Queriendo sobrevivir, sabes
Me hiciste cómplice de todo
Todo eso me hiciste.
En el camino
Las luces brillan
En el camino
Tus ojos brillan
Riff(x 2)
Nos volvemos algo locos y mas
Queriendo sobrevivir…
En el camino
Las luces brillan
En el camino
Tus ojos brillan
con Riff
En el camino
Las luces brillan
En el camino
Tus ojos brillan




[Solo y en Paz chords][Solo y en Paz cifra]
© LaCuerda.net · aviso legal · privacidad · es · en · pt · contacto
DINAMICO