Tablatura para Guitarra de los Piojos: Es Sentir
Conexión · Inscripción
Letras y Acordes
Pantalla Completa
Imprimir
Versión Texto
Añadir Favorito
Otras Versiones

Mostrar Diagramas
Desfile Automático
Manipular Acordes
Formato del Texto


Es Sentir(TAB)

los Piojos

calidad:
pioj0651
AUTOR: Andres Ciro Martinez
ALBUM: Ay ay ay (1994)
Enviado por nico
riff
( 2 veces )
E-----------------
B-----------------
G-----------------
D--2-3-2-3-2-3-5--
A-----------------
E-----------------

 (1 vez)
E-----------------
B-----------------
G-----------------
D--2-3-2-3-2-3-2--
A-----------------
E-----------------
 (1 vez)
E-----------------
B-----------------
G-----------------
D--2-3-2-3-2-3-5--
A-----------------
E-----------------

E--------------------------------
B--------------------------------
G----------------5---3-----------
D--2-3-2-3-2-3-5---2---2/5-------
A--------------------------------
E--------------------------------

G Es sentir, las luces que no caen
C G es sentir, salir como se nace
D C G El infierno está rajando tu piel, puerta sin llave. Riff
G Es sentir, que es hora de agitarse
C G es sentir, que nadie va a salvarte
D C G yo quiero probar tu copa nena hoy, quiero probarte. Antes del estribillo hace este riff E----------------- B----------------- G----------------- D----------------- A--------3-------- E--3--5-----------
D Es sentir atravesar el dolor
A creíste que allá estarías mejor;
D es sentir una luz de almacén
A es buscar algo para estar bien
E D A es sentir, es buscar, es volver. Solo de Guitarra con base en el riff principal. cierra haciendo un juego con el riff.... Nico Villagra Lopez, piojoso de alma. Bueno, espero que les guste no esta del todo completa pero suena. cualquier duda o comentario escribanme npvl@hotmail.com
Este fichero es trabajo propio de su transcriptor y representa su interpretación personal de la canción. El material contenido en esta página es
para exclusivo uso privado, por lo que se prohibe su reproducción o retransmisión, así como su uso para fines comerciales.

© LaCuerda.net · Aviso Legal · Privacidad