Acordes de Guitarra » P »Pescado Rabioso » La cereza del zar (Tab)

La cereza del zar
Pescado Rabioso

Letras, Acordes y Tabs para Guitarra, Bajo y Ukulele

  • e------------------------3-3-3-3-
    b--0-0-1h0---------------3-0-1-0-
    g----------0-2h0---------0-0-0-0-
    d----------------0-2h0---0-0-0-0-
    a------------------------2-0-0-0-
    E----------------------3-3-3-3-3-
     
    Repite tres veces y luego:
    
    e--------0-------3-3-3-3--------0-------3-3-3-3-
    b--0-1-3---3-1-0-3-0-1-0--0-1-3---3-1-0-3-0-1-0-
    g----------------0-0-0-0----------------0-0-0-0-
    d----------------0-0-0-0----------------0-0-0-0-
    a----0-2-3-2-0---2-0-0-0----0-2-3-2-0---2-0-0-0-
    E--3-----------3-3-3-3-3--3-----------3-3-3-3-3-
    
    e--2-3-5-5-3-2-0-2-3-3-2-0-------0-----3-----
    b--------------------------0-1-3---3-1-3-3-1-
    g--------------------------------------0-2-0-
    d--0-2-4-4-2-0---0-2-2-0---------------0-0-2-
    
  • ---www.spinettachords.com.ar---
    
    Acordes:
    G: 320033
    Gsus4: 320013
    D/F#: 200232
    C/G: 332010
    Am: x02210
    Bm: x24432
    Bm/Bb: x14432
    A: 577655
    F#: 244322
    Einv: x76454
    F#m: 244222
    E/G#: 4xx454
    Ebadd9: x6506x
    Cmaj7:  x3245x
    Dm: x57765
    
    
    
  • +
    ¡Colabora con nosotros!
    Envíanos tu versión de esta canción

Letra de La cereza del zar
Repite tres veces y luego:
La cereza del zar (las notas caen justo en las silabas)

impulsada por el
al caer el sol el zar miro las platas de su luna
loco por las calles va
buscando a la cereza
sombras de un hada
lo salude un rayo
el viento da pavor y nie-bla
las lajas de la calle
de unos ninios
caer.
Acordes
E a d g b e
Espro que les sirva cualquier cosa manden un mail
Vamos chaca viejo y peludo noma'




[La cereza del zar chords][La cereza del zar cifra]
© LaCuerda.net · aviso legal · privacidad · es · en · pt · contacto