Acordes de Guitarra » P »Pescado Rabioso » Bajan (Tab)

Bajan
Pescado Rabioso

Letras, Acordes y Tabs para Guitarra, Bajo y Ukulele

  • E---0---0-----0---0-----0---0------0---0----
    B----0-2-------0-2-------0-2--------0-2-----
    G-----1---------1---------1----------1------
    D-------------------------------------------
    A-------------------------------------------
    E--0------3-0-------3-0--------3-0--------0-3
    
    
    
    E             F#m
     Tengo tiempo, para saber
    
    C#m       F#*     B
     si lo que sueño concluye en algo
    
    E             F#m
     No te apures, ya más loco
    
    C#m       F#*     B
     porque es entonces cuando las horas
    
  • E            F#m
    Tengo tiempo para saber
    C#m        F#*     B
    si lo que sueño concluye en algo
    E               F#m
    no te apures ya mas,loco
    C#m         F#*      B
    porque es entonces cuando las horas 
    C#m      G#m      B        C#m
    bajan,el dia es vidrio sin sol
    C#m        G#m     B  C*     C#m
    Bajan,la noche te oculta la voz
       C     Am7    G#m7 F#m7
    y ademas vos queres sol
    C#m         C*                   C#m   AM7
    despacio tambien podes hallar la luna
    
    Viejo roble del camino
    tus hojas siempre se agitan algo
    nena,nena que bien te ves
    
  • +---------+----------+
    | Tono    |  EADGBe  |
    +---------+----------+
    | E       | [022100] |
    | F#m     | [244222] |
    | C#m     | [x46654] |
    | Fdim7   | [xx4545] |
    | B       | [x24442] |
    | G#m     | [466444] |
    | C       | [x35553] |
    | C*      | [x32010] |
    | Am7     | [575555] |
    | Ab      | [xx6554] |
    | G#m7    | [x64444] |
    | Emaj9   | [x74444] |
    | A       | [577655] |
    +---------+----------+
    
    Riff:
    
    
  • e|-----0-------0-----|
    B|-------0---2-------|
    G|---------1---------|
    D|-------------------|
    A|-------------------|
    E|-0-------------3b4-|
    
    RIF 1
    
    E|-------------------------------5----------
    B|--------5---------5------------5----------
    G|------6---------6----------6---6----------
    D|----6---------6----------6-----7----------
    A|--4---------6----------7-------5----------
    E|------------------------------------------
    
    
    
    ///////////////////////////////////////////
    
    
  • E |-------|----------------|-------|
    B |-------|----------------|-------|
    G |--11b--|--11~---11~9----|--11---|
    D |-------|----------------|-------|
    A |-------|----------------|-------|
    E |-------|----------------|-------|
    
    
    ----------------------------------------------------------------------------|
    -----------12----------------12---------------------------------------------|
    --11b---------------11b---------------11b---------------11----9-----11------|
    ----------------------------------------------------------------------------|
    ----------------------------------------------------------------------------|
    ----------------------------------------------------------------------------|
    
    
    ----------------------------------------------------|
    ----------------------------------------------------|
    --11~---------9--11----9--11------------------------|
    --------------------11-------9----------------------|
    
  • Los primeros compases no tienen bajo
    
    G------------- ------------ ----------- ------------
    D-------6-4--- -----6-6---- ----------- --------6---
    A-4-4-4-----6- ------6-6-4- -2-2--2-2-- -4-4--4---4-
    E------------- -4-4-------- ----------- ------------
    
    G------------- ------------ ----------- ------------
    D-------6-4--- ------------ ----------- ------------
    A-4-4-4-----6- ------------ --2-2-3-3-- --4----4-4--
    E------------- -4-4--4-4--- ----------- -----4------
    
    G-----------1-1 ----------- ----------- ------------ 
    D----2-2-3-3--- ----------- ----------- ------------
    A-3-3---------- ----------- -------2-3- -4----------
    E-------------- -5--4---2-- ----------- ------------
    
    G------------- ------------ -2--------- ------------
    D------------- ----1-1-2-2- ----------- ------------
    A-2----------- -4-4-------- ----------- ------------
    E------------- ------------ ----------- ------------
    
    Se repite la intro, esta vez con bajo
    
    G------------ ------------ ------------ ------
  • +
    ¡Colabora con nosotros!
    Envíanos tu versión de esta canción

Letra de Bajan
Tengo tiempo para saber
si lo que sueño concluye en algo
no te apures ya mas,loco
porque es entonces cuando las horas
bajan,el dia es vidrio sin sol
Bajan,la noche te oculta la voz
y ademas vos queres sol
despacio tambien podes hallar la luna
Viejo roble del camino
tus hojas siempre se agitan algo
nena,nena que bien te ves
cuando en tus ojos
no importa si las horas
bajan,el dia se sienta a morir
Bajan,la noche se nubla sin fin
y ademas vos sos el sol
despacio tambien podes ser la luna




[Bajan chords][Bajan cifra]
© LaCuerda.net · aviso legal · privacidad · es · en · pt · contacto