Acordes de Guitarra » P »Pescado Rabioso » Algo flota en la laguna (Tab)

Algo flota en la laguna
Pescado Rabioso

Letras, Acordes y Tabs para Guitarra, Bajo y Ukulele

  • A5             C5   A5  C5
    Algo flota en la laguna
      A5           C5  A5  C5
    tiene forma indefinida,
      A5             C5   A5  C5
    y al hombre que pasa cerca
     A5          C5      A5  C5
    con su rayo lo enloquece.
    
    A5 C5 Riff2
    
    Para el timpo de la pesca
    todo ya estará perdido,
    hay un monstru en la laguna,
    tonto es el que quiera echarlo
    
    [D5  C5  Bb5  A5] base del solo
    
    Bb/D        A(#5)/C#            G5
        La caridad del universo es falsa, falsa
    
  • e|--------------------------------------------------------------------||
    B|--------------------------------------------------------------------||
    G|--------------------------------------------------------------------||
    D|--------------2-2-0-0-----0-0-------------------2-2-0-0-----0----9--||
    A|--0-0-3-3-0-0---------3-3-----3-3---0-0-3-3-0-0---------3-3------7--||
    E|--------------------------------------------------------------------||
    
    
    Riff 1
    Algo flota en la laguna
    tiene forma indefinida
    y al hombre que pasa cerca
    con su rayo lo enloquece.
    
    
    Corte:
    A5 C5 G5 x4 (con punteo 1)
    
    
    Riff 1
    
  • Esta tab esta mas prolija y tiene corregidos algunos errores que tenia
    la otra.
    
                “Algo flota en la laguna…    …con su rayo lo enloquece yee!!”
                        5 veces
    G|-------|--------------------------------|------------------------------
    D|-------|------------2-2-----------------|------------2-2-------------2-
    A|--5/3--|-0--3-3-0-0-----5-5-3-3-5-5-3-3-|-0--3-3-0-0-----5-5-3-3-5-5---
    E|-------|---0----------------------------|---0--------------------------
    
    G|--------------------------------------------------------
    D|-----5-----3h5-55555555555----5-----3h5-555555h7-5h7-5h7
    A|-7---3-3------------------7---3-3-----------------------
    E|-5------------------------5-----------------------------
    
    G|--------------------------------------------------------|
    D|-----5-----3h5-55555555555----5-----3h5-55555555555-----|
    A|-7---3-3------------------7---3-3-----------------------|
    E|-5------------------------5-----------------------------|
    
         “Para el tiempo de la pesca…  
  • +
    ¡Colabora con nosotros!
    Envíanos tu versión de esta canción
  • Tutorial
    HD
    Explicado - Como tocar "Algo lota en la laguna" de Pescado Rabioso en el bajo tutorial#336
    15:07

Letra de Algo flota en la laguna
Algo flota en la laguna
tiene forma indefinida,
y al hombre que pasa cerca
con su rayo lo enloquece.
Para el timpo de la pesca
todo ya estará perdido,
hay un monstru en la laguna,
tonto es el que quiera echarlo
La caridad del universo es falsa, falsa
la tempestad se cogerá nidos
Nunca se sabrá la causa
de la voz de la leyenda,
para mi que la laguna
lleva su venganza a cabo.
Riff1
Riff2 Riff3




[Algo flota en la laguna chords][Algo flota en la laguna cifra]
© LaCuerda.net · aviso legal · privacidad · es · en · pt · contacto