Acordes de Guitarra » P »Pescado Rabioso » Despiertate nena (Tab)

Despiertate nena
Pescado Rabioso

Letras, Acordes y Tabs para Guitarra, Bajo y Ukulele

  •         Em7
    E|-------0--------------------------------------------------------|
    B|-------3--------------------------------------------------------|
    G|-------0--------------------------------------------------------|
    D|-------2--------------------------------------------------------|
    A|-------2--------------------------------------------------------|
    E|--0--0-0--0-3-5-------------------------------------------------|
    
    
    Riff en A
    
            Am7
    
    E|-------3--------------------------------------------------------|
    B|-------1--------------------------------------------------------|
    G|-------0--------------------------------------------------------|
    D|-------2--------------------------------------------------------|
    A|--0--0-0--0-3-5-------------------------------------------------|
    E|----------------------------------------------------------------|
    
    
  •          Em7
    ¡Ya despiértate nena!
          Em7
    sube al rayo al fin
           Am7
    ¡Ya despiértate nena!
             Em7
    sube alrayo al fin
          B   C
    y asi verás
                 D
    lo bueno y dulce que es amar
    
    ¡Ya despiértate rayo!
    sube a la nena
    ¡Ya despiértate rayo!
    sube a la nena
    y asi verás
    lo triste y dulce que es vivir
    
    
  • Riff en E
    1/--------------------------------------------------------
    2/--------------------------------------------------------
    3/----------7---------------------------------------------
    4/--0-----------0-3-5-------------------------------------
    
    Riff en A
    1/--------------------------------------------------------
    2/----------7----------------------------------------------
    3/--0------------0-3-5------------------------------------------
    4/--------------------------------------------------------
    
    y asi veras...
    1/--------------------------------------------------------
    2/--------------------------------------------------------
    3/--2-22-22-22-3-33-5-55----------------------------------
    4/--------------------------------------------------------
    
    
    es mi primer tab asi que concideracion por favor espero que les sirva!
  • +
    ¡Colabora con nosotros!
    Envíanos tu versión de esta canción

Letra de Despiertate nena
Riff en A
Riff Em7
Despiertate nena
sube al rayo al fin
Riff Am7
Ya despiertate nena
Riff Emt7
sube al rayo al fin
y asi veras lo bueno y dulce que es amar
despiertate rayo
sube a la nena
ya despiertate rayo
sube a la nena
y asi veras
lo bueno y dulce que es amar
Despiertate nena
sube al rayo al fin
Ya despiertate nena
sube al rayo al fin
y asi veras
lo bueno y dulce que es vivir
repite
final




[Despiertate nena chords][Despiertate nena cifra]
© LaCuerda.net · aviso legal · privacidad · es · en · pt · contacto