Acordes de Guitarra » P »Las Pelotas » Será (Tab)

Será
Las Pelotas

Letras, Acordes y Tabs para Guitarra, Bajo y Ukulele

  • E-------------------
    B-------------------
    G-------------------
    D------0-2-----0-2--
    A--0-0--------------
    E----------0-0------
    
    
    Riff sobre A - Em X4
    
    
    A             Em
    Yo no sé todavía
        A                 Em
    lo que me hiciste sentir
    G            A            Bm
     es como la fiebre cuando quema.
    
    
    Si la nube que arrastras
    
  •  A#          Fm
    Yo no sé todavía
        A#           Fm
    lo que me hiciste sentir
     G#        A#          Cm
    es como la fiebre cuando quema
       A#          Fm
    Si la nube que arrastras
       A#           Fm
    llegará un sitio final
      G#        A#          Cm
    ¿Cuánto tiempo guardas un secreto?
    
    
      A#          Fm
    Será por ti, será por mi,
       A#          Fm
    será por todo lo que fuimos
      A#          Fm
    Hasta el amanecer
    
  • e-|-----------------------------------|-
    B-|-----------------------------------|-
    G-|-----------------------------------|-
    D-|-----1-3------1-3-------1-3-----1-3|-
    A-|-1-1----------------1-1------------|-
    E-|----------1-1----------------1-1---|-
    
    
    Intro
            Bb              Fm            Bb          Fm
    e-|-8-8-8-8\6-6-6-6\4-4-4-4\1-1---1-1-1-4/6-4/6--4/6-4/6----|--|
    B-|---------------------------------------------------------|--|
    G-|---------------------------------------------------------|--|
    D-|---------------------------------------------------------|--|
    A-|---------------------------------------------------------|--|
    E-|---------------------------------------------------------|--|
    
            Bb              Fm            Bb          Fm
    e-|-8-8-8-8\6-6-6-6\4-4-4-4\1-1---1-1-1-4/6-4/6--4/6-1------|--|
    B-|---------------------------------------------------------|--|
    
  •    Sib       FA          Sib       FA
    |---------------------|--------------------------|
    |---------------------|-----------------15-------| |x2|
    |---------------------|--------------------------|
    |--6x6--6-6--1-1-1-1--|--6x6-6-6---13-13--13-13--|
    
       Sol#     Sib        Do
    |--------------------------------------|
    |---------------------------10---10----|
    |--------------------------------------|
    |--4x4-4-4--6x6-6-6-6--8x8-8---8----8--|
    
    
    Es bastante sencilla la tab, pero como no estaba la hice,
    a alguien le puede servir.
    
    pupi-pr@hotmail.com.ar
  • esta perfecta sacada, espero que la entiendan
    
    R: Redoblante                         T1: Tom 1
    H: Hi hat                             T2: Tom 2
    C: charleston                          
    .: puntillo  
    
    intro (solo de guitarra que repite 4 veces)
    en el 4º compás:
    
       1   2    3   4              
    C :-----------------
    R :---------.oo-oo--
    T1:---------------o-      silencio de puntillo es
    T2:-----------------
    H :-----------------
     
    base                
    
       1   2   3   4       
    C :x-x-x-x-x-x-x-x-
    R :-----o------o---
    T1:----------------
    T2:----------------
    H :o------o---o----
    
    despues de los crash seguidos
    
       1   2   3   4
    C :x-x-x-x-x-x-x-x-
    R :----o-------o---
    T1:----------------
    T2:----------------
    H :o-o-----o-o-----
    
    y arreglo en la parte 'que sera de nuestra cuerpo alado'
    
       1   2   3   4
    C :x-x-------------
    R :----o-oosoo-oooo  
    T1:----------------     s: silencio de semicorchea
    T2:----------------
    H :--o-------------
    
    
    espero que le guste
  • INTRO: (SOLO) LA# LA# RE# FA   -  FA FA RE# FA (mas agudo)
    
    ESTAS SON LAS NOTAS QUE FORMAN EL PRIMER SOLO
    (SOBRE BASE A# - Fm):
    
    DO DO DO DO LA# LA# LA# SOL# SOL# LA# SOL# SOL
    SOL SOL SOL# SOL SOL SOL# LA# SOL# LA# SOL# SOL# LA#
    SOL# LA#
    
    DO DO DO DO LA# LA# LA# SOL# SOL# LA# SOL# SOL
    SOL SOL SOL# SOL SOL SOL# LA# SOL# LA# SOL# SOL# LA#
    SOL# SOL
    
    1° ESTROFA
    
    fa la# sol# sol sol# sol fa
    Yo no se todavia
    fa la# sol# sol sol# sol fa
    lo que me hiciste sentir
    do do do do la# fa sol sol# sol# sol
    es como la fiebre cuando quema...
    fa la# sol# sol sol# sol fa
    si la nube que arrastras
    fa la# sol# sol sol# sol fa
    llegara a un sitio final
    do do do do la# fa sol sol# sol# sol
    cuanto tiempo guardas un secreto?
    
    
    ESTRIBILLO
    re# fa sol fa re# fa la# sol
    Sera por ti sera por mi
    fa sol# fa sol# fa sol# fa
    sera por todo lo que fuimos
    fa fa la# sol# sol fa
    hasta el amanecer
    
    
    REPITE SOLO DEL PRINCIPIO
    
    2°ESTROFA (LAS MISMAS NOTAS QUE LA 1°)
    
    Desde el monte que
  • +
    ¡Colabora con nosotros!
    Envíanos tu versión de esta canción
  • Tutorial
    HD
    Como tocar Sera de Las Pelotas en el bajo tutorial#31
    3:21

Letra de Será
Riff sobre A - Em X4
Yo no sé todavía
lo que me hiciste sentir
es como la fiebre cuando quema.
Si la nube que arrastras
llegará un sitio final
¿Cuánto tiempo guardas un secreto?
Será por ti, será por mi,
será por todo lo que fuimos
Hasta el amanecer.
Riff sobre A - Em X4
Desde el monte que abrazo
camino sin explorar
¿Calmará la lluvia este desierto?
Con el alma en las manos
tratando de descubrir
¿Qué será de nuestro cuerpo alado?
Será por ti, será por mi
Será por todo lo que fuimos
hasta el amanecer




[Será chords][Será cifra]
© LaCuerda.net · aviso legal · privacidad · es · en · pt · contacto