Acordes de Guitarra » P »Las Pelotas » Personalmente (Tab)

Personalmente
Las Pelotas

Letras, Acordes y Tabs para Guitarra, Bajo y Ukulele

  • E-F#   (x4)
    E
             F#
    Deja que ruede
                           E
    Como el aire entre las hojas
                         F#   E
    Todo es oro, todo es sal
    
    
                   F#
    Que llegará el día
                        E
    Que no quemen sus recuerdos
                        F#   C#m
    Que se apagará el dolor
    
    
                  F#   C#m
    Personalmente creo
    
  • SI---9
    SOL--8
    RE---9
    LA---7
    MI---x
    
    
    (empieza rasgueo de abajo para arriba marcando todas las cuerdas suave)
    Ed7---F#  X4
    
    Ed7           F#
      Deja que ruede
                             Ed7
    Como el aire entre las hojas
                          F#
    Todo es oro, todo es sal
    
    Ed7              F#
     Que llegará el día
                         Ed7
    
  • Emaj7 - F# (x4)
    Emaj7
             F#
    Deja que ruede
                           Emaj7
    Como el aire entre las hojas
                         F#
    Todo es oro, todo es sal
    
    Emaj7
                   F#
    Que llegará el día
                        Emaj7
    Que no quemen sus recuerdos
                        F#   C#m7
    Que se apagará el dolor
    
    
                  F#   C#m7
    Personalmente creo
    
  • Buenas gente! Dejo los punteos ya que todavía no están en la cuerda.
    
    Intro:
    
    1|------------------------------------|
    2|---------------------7--------------|
    3|--8--6-------------8---6---6up------|
    4|----------6-9-6-9---------------9---|
    5|--------9---------------------------|
    6|------------------------------------|
    
    1|------------------------------------------|
    2|---------------------7----------7-7---7-9-|
    3|--8--6-------------8---6----6-8-----8-----|
    4|----------6-9-6-9-------------------------|
    5|--------9---------------------------------|
    6|------------------------------------------|
    
    
    Solo:
    
    1|-11-12-11------------------------------------|
    2|-12-------12-11------------------------------|
    3|-13-------------13---------------------------|
    4|--------------------14-13--11h13-11----------|
    5|---------------------------------------------|
    6|---------------------------------------------|
    
    1|----------------------------------11-12-14-14--12-14b16---|
    2|-11-12-11----11----11-12-14-14-----
  •   Emaj7  F#   F*  C#m
    E|--7--|--2--|--2--|--4--|-
    B|--9--|--2--|--4--|--5--|-
    G|--8--|--3--|--3--|--6--|-
    D|--9--|--4--|--4--|--6--|-
    A|--7--|--4--|--x--|--4--|-
    E|--x--|--2--|--x--|--x--|-
    ***************************
    
    
    (Intro)
    Emaj7             F#              Emaj7           F#
    e----------------|---------------|---------------|---------------|
    B----------------|---------------|--------------7|---------------|
    G-4--------6b8---|-6--------4h---|-4---------6b8-|-6--------6b8-6|
    D----------------|--------4h6--6-|---------------|---------------|
    A----------------|---------------|---------------|---------------|
    E----------------|---------------|---------------|---------------|
    
    Emaj7            F#              Emaj7           F#
    
  • +
    ¡Colabora con nosotros!
    Envíanos tu versión de esta canción
  • Tutorial
    HD
    Como tocar "Personalmente" de las Pelotas en el bajo tutorial#39
    7:05

Letra de Personalmente
Deja que ruede
Como el aire entre las hojas
Todo es oro, todo es sal
Que llegará el día
Que no quemen sus recuerdos
Que se apagará el dolor
Personalmente creo
Que todo esto es una locura
Personalmente creo
Que todo esto es una locura
Cómo es la vida
Cuántas veces en el cielo
Cuántas en la oscuridad
Que sólo es el tiempo
El que llevará tú vida
A dónde quieres que estés
Personalmente creo
Que todo esto es una locura
Personalmente creo
Que todo esto es una locura
Deja, sigamos remontando vuelo
Deja, la luz siempre atraviesa el bosque
Después es solo un recuerdo
Después solo pasará
Deja que ruede
Llegará el día
La locura
La locura...




[Personalmente chords][Personalmente cifra]
© LaCuerda.net · aviso legal · privacidad · es · en · pt · contacto