Tablatura para Bajo de Las Pelotas: Será
Conexión · Inscripción
Letras y Acordes
Pantalla Completa
Imprimir
Versión Texto
Añadir Favorito
Otras Versiones

Mostrar Diagramas
Desfile Automático
Formato del Texto


Será(BAJ)

Las Pelotas

calidad:
pelo0444
AUTOR: Daffunchio, Jove, Martínez, Bette Sussmann
ALBUM: Esperando el Milagro (2003)
Enviado por Lautaro
   Sib       FA          Sib       FA
|---------------------|--------------------------|
|---------------------|-----------------15-------| |x2|
|---------------------|--------------------------|
|--6x6--6-6--1-1-1-1--|--6x6-6-6---13-13--13-13--|

   Sol#     Sib        Do
|--------------------------------------|
|---------------------------10---10----|
|--------------------------------------|
|--4x4-4-4--6x6-6-6-6--8x8-8---8----8--|


Es bastante sencilla la tab, pero como no estaba la hice,
a alguien le puede servir.

pupi-pr@hotmail.com.ar
Este fichero es trabajo propio de su transcriptor y representa su interpretación personal de la canción. El material contenido en esta página es
para exclusivo uso privado, por lo que se prohibe su reproducción o retransmisión, así como su uso para fines comerciales.

© LaCuerda.net · Aviso Legal · Privacidad