Acordes de Guitarra » P »Las Pelotas » Bombachitas Rosas (Tab)

Bombachitas Rosas
Las Pelotas

Letras, Notas, Punteos, Tablaturas y Acordes de Guitarra (Tabs & Chords)

  • Letra y Acordes
    Intro:(DO MIm FA SOL)
          (DO SOL/SI LAm SOL)
    
    DO          MIm 
    Muchos dias quise hablar
    FA            SOL
    muchas sombras   hay aca
    DO             SOL/SI
    cuando te busco      no estas
    LAm         SOL        DO MIm FA SOL 
    cuando te encuentro te vas,
       DO SOL/SI LAm SOL
    te vas.
    
    Si sabes que voy a hacer 
    no me quieras convencer
    siempre mirando hacia atras
    nunca,nunca entenderas
    nunca entenderas.
    
    
  • Letra y Acordes
             DO  MIm  FA  SOL  x2
    
    DO          MIm          FA SOL
    Muchos días quise hablar, muchas sombras hay acá
    Cuando te buscó no estás, cuando te encuentro te vas...
    te vas.
    
    Si sabés que voy a hacer no me quieras convencer
    Siempre mirando hacia atrás, nunca, nunca, nunca entenderás
    nunca entenderás
    
    
    Puente: DO  MIm  FA  SOL  x2
    
           DO  MIm  FA  SOL  x2
    
    (Solo LA guitarra)
    Entras en mi casa hoy, tienes miedo a lo que soy
    tu sonrisa se me va, si sabés muy bien adónde voy
    adónde voy
    
  • Tablatura
    Aca va la intro y el solo, que no estaban en la página.
    
    Intro:
                C                       C
    e|----------------------|-------------3----------|
    B|--------1--3-1---1-3--|--------1--3---3-1-3(0)-|
    G|------0--------0------|------0-----------------|
    D|----2-----------------|----2-------------------|  X 3
    A|--3-------------------|--3---------------------|
    E|----------------------|------------------------|
    
    
    Solo:
    
    e|--/12--17-17-17--12--17---12-17----/10--15-15-15--10--15---10-15-
    B|-----------------------------------------------------------------
    G|-----------------------------------------------------------------
    D|-----------------------------------------------------------------
    A|-----------------------------------------------------------------
    E|-----------------------------------------------------------------
    
    ------13-13-13----13-13---------------------|
    ---13----------13---------------------------|
    --------------------------14-17-14----------| x2
    ---------------------------
  • +
    ¡Colabora con nosotros!
    Envíanos tu versión de esta canción
  • Tutorial
    HD
    Explicado - Como tocar "Bombachitas Rosas" de Las Pelotas en el bajo tutorial#88
    6:58

Letra de Bombachitas Rosas
Muchos dias quise hablar
muchas sombras hay aca
cuando te busco no estas
cuando te encuentro te vas,
te vas.
Si sabes que voy a hacer
no me quieras convencer
siempre mirando hacia atras
nunca,nunca entenderas
nunca entenderas.
Entras en mi casa hoy
tienes miedo a lo que soy
tu sonrisa se me va
si sabes muy a donde voy,
a donde voy.
Muchos dias quise hablar
muchas sombras hay aca
cuando te busco no estas
cuando te encuentro te vas,
muy lejos te vas.
Repite intro hasta el final.



© LaCuerda.net · Aviso Legal · Privacidad