Acordes de Guitarra » P »Pedro Suarez Vertiz » Sé que todo ha acabado ya (Tab)

Sé que todo ha acabado ya
Pedro Suarez Vertiz

Letras, Acordes y Tabs para Guitarra, Bajo y Ukulele

  • A        E           F#m
     como duele el corazon 
    Bm       A          E
     ya no queda oportunidad
    A        E       F#m
     un gran libro se cerro
    Bm         A          E
     nadie ve lo que va a pasar
    A       E         F#m 
     somos ciegos al nacer
    Bm       A          E
     y ahora ves nada estuvo mal
    A         E           F#m      
     nos culpamos sin querer
    Bm        A           E
    
    
     si estoy bien o estoy mal
    B          
     al universo le da igual 
    
  • e|----------------------------------------0-------------------5----------------|
    B|-----------------------------------------------------------------------------|
    G|-------------------2---------------------------------------------------------|
    D|--------2-----5-4------------2-----5-4------------2-----5-4------------2-4-2-|
    A|-0-2-4-----4----------0-2-4-----4----------0-2-4-----4----------0-2-4--------|
    E|-----------------------------------------------------------------------------|
    
    
    A        E           F#m
     se que todo ha acabado ya
    D        A          E
     como duele el corazon 
    A        E       F#m
     ya no queda oportunidad
    D          A          E
     un gran libro se cerro
    A       E         F#m 
     nadie ve lo que va a pasar
    D        A          E
     somos ciegos al nacer
    
  • Hola aca les mando el Intro tal como es, y el solo lo mas parecido posible.
    He visto las otras versiones y estan mal, no es que la mia sea perfecta,
    pero se asemeja mas que las otras. Cualquier cosa escribanme
    
    INTRO
    
    e|----------------------------------------0-|
    B|------------------------------------------|
    G|-------------------2----------------------|
    D|--------2-----5-4------------2-----5-4----|
    A|-0-2h4-----4--5-5-----0-2h4-----4--5-5----|
    E|------------------------------------------|
    
    e|-------------------5----------------|
    B|------------------------------------|
    G|------------------------------------|
    D|--------2-----5-4------------2h4h2--|
    A|-0-2h4-----4--5-5-----0-2h4---------|
    E|------------------------------------|
    
    
    SOLO
    
    e|------5-5---5-------------------------------------12-------------|
    B|--5s7-----7-----12b14--12b14-10-12-10----10---10-----14-12h14-14-|
    G|--------------------------------------11-------------------------|
    D|------------------------------------------------
  • +
    ¡Colabora con nosotros!
    Envíanos tu versión de esta canción
  • Tutorial
    HD
    Sé que todo ha acabado ya - Pedro Suárez Vértiz (tutorial pt1)
    3:34
  • Tutorial
    HD
    Se que todo ha acabado ya - BassLine
    3:10

Letra de Sé que todo ha acabado ya
como duele el corazon
ya no queda oportunidad
un gran libro se cerro
nadie ve lo que va a pasar
somos ciegos al nacer
y ahora ves nada estuvo mal
nos culpamos sin querer
si estoy bien o estoy mal
al universo le da igual
todo sigue alrededor
el amor no es divinidad
es un ciclo sin natural
que destroza al corazon
esta bien lo voy a aceptar
dios no inventes el final
por favor no pasiemos mas
es muy tarde y ya me voy
por favor ya no hablemos mas
se desluce una ilusion
da da da da da da
da da da da da da ...
gran balada de este album y como dice pedro suarez vertis sobre esta cancion: darle amistad al que quiere amor, es como darle pan al que tiene sed




[Sé que todo ha acabado ya chords][Sé que todo ha acabado ya cifra]
© LaCuerda.net · aviso legal · privacidad · es · en · pt · contacto