Acordes de Guitarra » P »Pedro Suarez Vertiz » Lo olvidé (Tab)

Lo olvidé
Pedro Suarez Vertiz

Letras, Acordes y Tabs para Guitarra, Bajo y Ukulele

  • Intro: Bm - C - G - Em - D (2x)
    
    
    Punteo:
    
    e------------------12-10-10-------------------|
    B--12-12-10-----------------12-13-12-10----10-|
    G-----------12--12----------------------12----|
    D---------------------------------------------|
    A---------------------------------------------|
    E---------------------------------------------|
    
    
    
     G                   D     Bm
    Se que debí tomar tu mano
                         Em
    Cuando solíamos caminar
    C                     G
    Se que debí estar a tu lado
    
  • INTRO: SOL  DO  MIm  RE
    
    
    Se que debí tomar tu mano...
    SOL                    RE  SI
    cuando solíamos caminar
                        MIm
    se que debí estar a tu lado...
    DO                     SOL   RE
    para algo mas que disfrutar
                            SOL
    CORO:
    Lo olvide....lo olvide lo olvide (2 veces)
          DO MIm                 RE
    
    
    Se que debí dejar de lado...
    SOL                   RE     SI
    Y la razón debía ganar
                        MIm
    
  • Intro (SOL-DO-MIm-DOR-RE)
    
    EL PUNTEO ES FACIL PERO LA PRIMERA PARTE ES LENTA
    
    e|---------------------12-10-10-7-8-7-5-3-5----
    B|--12--12-10-8--8-11-------------------------
    
    
    SOL                  RE
    se que devi tomar tu mano
    SI                 MIm(RE)
    cuando solìamos caminar
    DO                       SOL
    sè que devì estar a tu lado
    RE                     SOL
    Para algo más que disfrutar
    
    
    
             DO MIm                    RE
    
  • e|---------------------12-10-10-7-8-7-5-3-5----
    B|--12--12-10-8--8-11-------------------------
    
    
    2da guitarra (acompañamiento del punteo) :
    
    INTRO: SOL  DO  MIm  RE (MISMO RASGUEO QUE PARA LA ESTROFA)
    
    
    SOL                  RE
    se que debí tomar tu mano
    SIm                 MIm
    cuando solíamos caminar
    DO                       SOL
    se que debí estar a tu lado
    RE                     SOL
    Para algo más que disfrutar
    
    
    
    
  •    SIm    DO     SOL      MI-7    RE  (2veces)
    1|-2---2---3---3---3---3---3---3---2---2---2---2-|
    2|-3-3-3-3-3-3-3-3-3-3-3-3-3-3-3-3-3-3-3-3-3-3-3-|
    3|-----------------------------------------------|
    4|-------------------------2-------0-------------|
    5|-2-------3-------------------------------------|
    6|-----------------3-----------------------------|
    
    ESTROFAS
      SOL             RE              SI 
    1|-3---3---3---3---2---2---2---2-------------------|
    2|-3-3-3-3-3-3-3-3-3-3-3-3-3-3-3-3-4---4---4---4---|
    3|---------------------------------4-4-4-4-4-4-4-4-|
    4|-----------------0-------------------------------|
    5|---------------------------------2---------------|
    6|-3-----------------------------------------------|
    
       MIm            DO 
    1|-0---0-----------0---0---0---0-------------------|
    2|-0-0-0-0-3---3---1-1-1-1-1-1-1-1-3---3---3---3---|
    
  • +
    ¡Colabora con nosotros!
    Envíanos tu versión de esta canción

Letra de Lo olvidé
Punteo:
Se que debí tomar tu mano
Cuando solíamos caminar
Se que debí estar a tu lado
Para algo más que disfrutar
Lo olvidé, lo olvidé lo olvidé,
Lo olvidé, lo olvidé lo olvidé
Sé que debí dejar de lado
Que la razón debía ganar
Se que debí no hacerme caso
Se que debí volver a amar
Lo olvidé, lo olvidé lo olvidé,
Lo olvidé, lo olvidé lo olvidé
De nada sirve decir te amo
De nada sirve ahora llorar
Como quisiera estar soñando
Y con tus besos despertar
Una oportunidad perdida
En el amor no vuelve mas
Son las lecciones de la vida
Que nunca mas te servirán
Lo olvidé, lo olvidé lo olvidé,
Lo olvidé, lo olvidé lo olvidé
Y ahora la vida se rompe
Mi alma esta sola
Escucho tu nombre
Mis ojos te lloran (te lloran amor)
Se que debí haber amado
Pero es muy tarde, lo olvide
Quiero estar entre tus brazos
Y que tus besos me despierten
Perdóname
como ayer, como ayer
Un saludo para el Club de fans oficial de Pedro Suárez Vértiz
https://www.facebook.com/OficialFanClubPSV




[Lo olvidé chords][Lo olvidé cifra]
© LaCuerda.net · aviso legal · privacidad · es · en · pt · contacto