Acordes de Guitarra » P »Pedro Suarez Vertiz » No pensé que era amor (Tab)

No pensé que era amor
Pedro Suarez Vertiz

Letras, Acordes y Tabs para Guitarra, Bajo y Ukulele

  •        D                     F#
      No pensé que era amor y lo dejaba correr
            Bm                    D7                G
     Iba atando mis manos me alejo del ayer y del mar
        A                     F#m                 B7
     Que antes miraba estando solo, hoy vale nada sin ti
          Em       A             G         D
     Lo sé queda poco y ya te tienes que ir
    
           G         A             F#m           B7
     Mi alma llorará mi amor llorará y caerá en un pozo
             Em               A            D
    Pues te vas y quedo muy solo cuantos segundos más
               D7           G           A
      Te podré mirar y es verdad que al hablar
                  F#m         Bm  B7        Em
      De amor al hablar me destrozo, pues te vas
                     A             G     D
      Y quedo tan solo que prefiero morir.
                D                 F#
    
  • ------------------------------------------------------
    ------------------------------------------------------
    ------------------------------------------------------
    -------7------9---------------------------------------
    ----------------------7-------------------------10----
    ------------------------------10-------7--------------
               D                     F#
        NO PENSE QUE ERA AMOR Y LO DEJAVA CORRER
             Bm                    D7                G                  
        IBA ATANDO MIS MANOS ME ALEJO DEL AYER Y EL MAR
        A                         D                     B7
        QUE ANTES MIRABA ESTANDO SOLO HOY VALE NADA SIN TI
           Em        A             G        D                  
        LO SE, QUEDA POCO Y YA TE TIENES QUE IR.
           G         A              D               Bm
        MI ALMA LORARA MI AMOR LORARA Y CAERA EN UN POZO
      B7        Em               A            D7        
        PUES TE VAS Y QUEDO MUY SOLO CUANTO SEGUNDOS MAS 
                                G             D 
        TE PODRE MIRAR Y ES VERDAD QUE AL HABLAR 
    
  • e|--------10-------|
    B|----------12-10--|
    G|-----7-----------|
    D|-7-9-------------|
    A|-----------------|
    E|-----------------|
    
    *Violín
        D - F# - Bm - D7 - G - A - F#m - Bm - B7 - Em - A - G - D
    e|-------------------------------------7-9-10-9-7-5-7-7-7-7.-7-7-7.-5----
    B|---5-7-7-7-7.-7-7-7-8-7-7-7.-7-7-7-7--------------------------------8.-
    G|-7---------------------------------------------------------------------
    D|-----------------------------------------------------------------------
    A|-----------------------------------------------------------------------
    E|-----------------------------------------------------------------------
    
    e|-9-10-9-7----------7-----------5-7-5---------------------|
    B|----------10.-7-10---7.-7-7-8.-------5.-5-5---5----------|
    G|--------------------------------------------7---7-8-7..--|
    D|---------------------------------------------------------|
    
  • e|--------10-------|  
    B|----------12-10--|
    G|-----7-----------|  
    D|-7-9-------------|  
    A|-----------------|
    E|-----------------|
    
    *Violín
    D - F# - Bm - D7 - G - A - D - B7 - Em - A - G - D 
    e|-------------------------------------7-9-10-9-7-5-7-7-7-7.-7-7-7.-5----
    B|---5-7-7-7-7.-7-7-7-8-7-7-7.-7-7-7-7--------------------------------8.-
    G|-7---------------------------------------------------------------------
    D|-----------------------------------------------------------------------
    A|-----------------------------------------------------------------------
    E|-----------------------------------------------------------------------
    
    e|-9-10-9-7----------7-----------5-7-5---------------------|
    B|----------10.-7-10---7.-7-7-8.-------5.-5-5---5----------|
    G|--------------------------------------------7---7-8-7..--|
    D|---------------------------------------------------------|
    
  • +
    ¡Colabora con nosotros!
    Envíanos tu versión de esta canción
  • Tutorial
    HD
    No pensé que era amor - Pedro Suárez Vértiz (tutorial pt1)
    4:01
  • Tutorial
    No pense que era amor- Pedro Suarez Vertiz
    0:35

Letra de No pensé que era amor
NO PENSE QUE ERA AMOR Y LO DEJAVA CORRER
IBA ATANDO MIS MANOS ME ALEJO DEL AYER Y EL MAR
QUE ANTES MIRABA ESTANDO SOLO HOY VALE NADA SIN TI
LO SE, QUEDA POCO Y YA TE TIENES QUE IR.
MI ALMA LORARA MI AMOR LORARA Y CAERA EN UN POZO
PUES TE VAS Y QUEDO MUY SOLO CUANTO SEGUNDOS MAS
TE PODRE MIRAR Y ES VERDAD QUE AL HABLAR
DE AMOR AL HABLAR ME DESTROSO, PUES TE VAS
Y QUEDO TAN SOLO QUE PREFIERO MORIR.
SIN PENSAR EN MANANA SOLLOZANDO MI PIE
YA NO TENGO PALABRAS NO TE VOLVERE A VER JAMAS
Y ESTO ME ESTA ARRANCANDO TODO ME ESTA MATANDO
YO LO SE ESTA BIEN DENTRO DE POCO NO TE VOLVERE A VER....
YO PENSE QUE ERA DUENO DE LO QUE PODIA SER
YA NO TOQUES MI PIEL SI NO VAS A VOLVER JAMAS
PORQUE SE INUNDAN MIS OJOS AL HABLAR DE TI
NO LO SE ESTARE LOCO O ES QUE ME QUIERO MORIR
NO LO SE ESTARE LOCO O ES QUE ME QUIERO MORIR.
final :




[No pensé que era amor chords][No pensé que era amor cifra]
© LaCuerda.net · aviso legal · privacidad · es · en · pt · contacto