Acordes de Guitarra » P »Pedro Suarez Vertiz » La vida me sabe a nada (Tab)

La vida me sabe a nada
Pedro Suarez Vertiz

Letras, Acordes y Tabs para Guitarra, Bajo y Ukulele

  •     (F#m)
       E|-2-|
       B|-2-|
       D|-2-|
       G|-4-|
       A|-0-|
       E|-0-|
    
    
    Pedro suarez - la vida me sabe a nada
    
    Intro
    
    D G Bm A
    
    D                         G               Bm                A
      Nomas me sigues por pensar que al estar bien  olvidate tu mal
    D                            G                 Bm                  A
      No me preguntes no te dire nada    no regresare  te juro no volvere
    
    
  • INTRO:
    
    e|--------------------------------------2-5-5-7-9-10-12-9---7-5--7-5--7-5-5..--|
    B|--------------------------3-6h7-3..-3-------------------------7----7---------|
    G|-----2-2---2-2..--2-2-2-4----------------------------------------------------|
    D|-2-4-----4-------------------------------------------------------------------|
    A|-----------------------------------------------------------------------------|
    E|-----------------------------------------------------------------------------|
    
    
    SOLO (Despues del 1er. coro)
    
    e|--12--13h14-12-10----------------------------------------------------------|
    B|------------------11h12-12-10---10----------------------------7------------|
    G|------------------------------11---11-9-9-11-7----7-7---7-9-7---9-7--9--7--|
    D|-----------------------------------------------7-9-----9------------9--9---|
    A|---------------------------------------------------------------------------|
    E|------------------------------------------------------------
  • +
    ¡Colabora con nosotros!
    Envíanos tu versión de esta canción

Letra de La vida me sabe a nada
E|-2-|
B|-2-|
D|-2-|
G|-4-|
A|-0-|
E|-0-|
Pedro suarez - la vida me sabe a nada
Nomas me sigues por pensar que al estar bien olvidate tu mal
No me preguntes no te dire nada no regresare te juro no volvere
No me encantes con caras de bienvenida
Mi… alegria ahora la manejo yo
Y es que el miedo ya no me ruborisa
La vida me sabe a nada y la nada me sabe bien
Nomas me hablas por pensar que al estar bien auyentare tu mal
No me persigas no te dire nada no regresare… Te juro no volvere
No me encantes con caras de bienvenida
Mi… alegria ahora la manejo yo
Y es que el miedo ya no me ruborisa
La vida me sabe a nada y la nada me sabe bien
No me persigas no te dire nada no regresare… Te juro no volvere
No me encantes con caras de bienvenida
Mi… alegria ahora la manejo yo
Y es que el miedo ya no me ruborisa
La vida me sabe a nada y la nada me sabe bien
Tu boca me sabe a nada uhmmmme siento bien
La pena me sabe a nada me siento bien
La vida me sabe a nada y la nada me sabe bien
Ohhhh nono ohhhh
Uhh uhhh uhnnnn
*************************************
* Cualquier Consulta escribir a *
* lonelylas@hotmail.com *
* Mario Abal Sanchez *
* Cusco - Peru *
*************************************




[La vida me sabe a nada chords][La vida me sabe a nada cifra]
© LaCuerda.net · aviso legal · privacidad · es · en · pt · contacto