Acordes de Guitarra » P »Panda » Promesas / decepciones (Tab)

Promesas / decepciones
Panda

  • Letra y Acordes
    E
    Que equivocados estábamos
    A
    Al pensar que la eternidad
           F#                   B<--------SON 10 RASGUEOS X CADA
    Iba a ser, para siempre esta vez!!!                        ACORDE
    
    E
    Me prometiste y me mentiste
    A
    Te prometí, nunca mentí
       E                         B
    Fíjate, un castigo haz de merecer!!!
    
           A                B
    Decepción es algo q no hubo entre los dos
           A                       B
    y al final tu lo hiciste algo real
           A                              B
    Tacha todas las veces q te dije algo desde el corazón
    
  • Letra y Acordes
    C#m
    Que equivocados estábamos
        A
    Al pensar que la eternidad
           F#m                   B
    Iba a ser, para siempre esta vez!!!
    C#m
    Me prometiste y me mentiste
    A
    Te prometí, nunca mentí
       F#m                         B
    Fíjate, un castigo haz de merecer!!!
    
           A                B
    Decepción es algo q no hubo entre los dos
           A                       B
    y al final tu lo hiciste algo real
           A                              B
    Tacha todas las veces q te dije algo desde el corazón
        A            B
    
  • Tablatura
    Bueno, esta version que mando es en Afinacion Standard "E" y
    esta completita!, con las dos guitarras... aki se las dejo, disfrutenla
    y saludos a todos los fans chilenos de Pxndx k de apoko
    somos màs!
    
    Espero = voten por esta Tab que de verdad esta muy Buena
    sacada a oido por mi...
    
    Aviso del Intro: Para que suene = a la cancion, deberiamos saber un
    pokitito a ocupar el dedo meñique (el chikitito xD!) solo
    tiene k haber practica y sonara =
    
    *Pm : Palm Mute
    Intro:
    e-----------------------|
    B-----------------------|
    G-----------------------|
    D-2---2---2---2---------| Se repite hasta cambiar las notas
    A-4-4---4---4-4---------|
    E-----------------------|
    Que equivocados estabamos al...
    
    e-----------------------|
    B-----------------------|
    G-----------------------|
    D-2---2---2---2---------|
    A-4-4---4---4-4---------|
    E-5-----------5---------|
    ... Pensar que la eternidad iba...
    e------------------------------------------|
    B------------------------------------------|
    G---------------------4-4-4
  • Tab p/Bajo
    Bueno mi nombre es alvaro serrano soy de Bolivia.
    Esta cancion esta modificada
    en base a las otras esta 100% bien. solo les pido.
    1.- fijense en los tiempos
    2.- rasgueen bien para q suene bien
    3.- no le puse cuantos rasgueos son ya q no es un rasgueo
    uniforme sino bien variado y rapido. escuchenla bien
    y no sera problema.
    4.- disfrutenla
    
    esta en bemol. medio tono abajo saludos!!!
    
    Intro
    
    F#|---10~|---------7-|---------------------------
    C#|--12~-|--------8~-|---------------------------
    G#|------|-----------|----------------3333~3333~-
    Eb|------|-----------|-----3333~3333~------------
    
    Verso 1
    Me Prometiste y Me Mentiste...
    F#|---------------------|------------------------
    C#|---------------------|------------------------
    G#|-555555555-----------|-------------3333~3333~-
    Eb|-----------666666666-|---3333~3333~-----------
    
    Coro
    Decepcion Es Algo Que....
    F#|----------------------------------------------
    C#|----------------------------------------------
    G#|-555555555--------------------333
  • Tab p/Bajo
    Bueno ps akee les traigo la cancion de Promesas / Decepciones
    Version sinfonia soledad
    
    Intro
    
    F#|--10-------10-------10---|  |-7-----7-----7--|
    C#|--12-12-12-12-12-12-12-12|  |-8-8-8-8-8-8-8-8|
    G#|-------------------------|x4|----------------|x4
    Eb|-------------------------|  |----------------|
    
    Que equibocados estabamos...
    
    F#|--10-------10-------10---|  |-7-----7-----7--|
    C#|--12-12-12-12-12-12-12-12|  |-8-8-8-8-8-8-8-8|
    G#|-------------------------|x2|----------------|x2
    Eb|-------------------------|  |----------------|
    
    F#|-3333~3333~-----------|
    C#|------------3333~3333~|
    G#|----------------------|
    EB|----------------------|
    
    Verso
    
    Me Prometiste y Me Mentiste...
    F#|---------------------|------------------------|
    C#|---------------------|------------------------|
    G#|-555555555-----------|-------------3333~3333~-|
    Eb|-----------666666666-|---3333~3333~-----------|
    
    Pre-Coro
    
    Decepcion Es Algo Que...
    F#|----------------------------------------------|
    C#|----------------------------
  • +
    ¡Colabora con nosotros!
    Envíanos tu versión de esta canción

Letra de Promesas / decepciones
Que equivocados estábamos
Al pensar que la eternidad
Iba a ser, para siempre esta vez!!! ACORDE
Me prometiste y me mentiste
Te prometí, nunca mentí
Fíjate, un castigo haz de merecer!!!
Decepción es algo q no hubo entre los dos
y al final tu lo hiciste algo real
Tacha todas las veces q te dije algo desde el corazón
Retiro lo dichoo uouo
Recuerda que siempre tu fuiste
Quien me daba ganas de ser un hombre de bien
No tienes mas corazon lo diste a beneficencia de el
Pobre de el.
Agradece y pide
Que todo lo que te deseo
Nunca jamás se haga realidad
Destrozaste mi sueño con tu orgullo
Te arrepentirás ya veras
Decepción es algo q no hubo entre los dos
y al final tu lo hiciste algo real
Tacha todas las veces q te dije algo desde el corazón
Retiro lo dichoo uouo
Recuerda que siempre tu fuiste
Quien me daba ganas de ser un hombre de bien
Encaja esta espada en tu yugular
Experiencia tendrás
Muchas veces me encajaste tus promesas
INTERCLUDE...
DESCANSA GUITARRA
Entra guitarra:
Descansa Guitarra:
Se oyen unas vocecitas y pepe canta lo sig.:
No nací para amar
Y aprendí que solo causa el mal
No nací para amar
Batalle pero te deje entrar
Entra la guitarra:
Retiro lo dichoo uouo
Recuerda que siempre tu fuiste
Quien me daba ganas de ser un hombre de bien
No tienes mas corazon lo diste a beneficencia de el
Pobre de el.
ESTA ROLA ESTA BASTANTE CHIDA, LE HICE EL FAVOR A TANIA (TATA),
QUE LA ESTIMO Y APRECIO UN BUEN (YOU 4VER IN MY :P) ;) Y TAMBIEN
LE GUSTA ESTA ROLA; A VER SI A USTEDES LES GUSTA, CUALQUIER COSA
HAGANMELA SABER A MI CORREO…
fin...



© LaCuerda.net · aviso legal · privacidad · contacto