Acordes de Guitarra » P »Panda » Los malaventurados no lloran (Tab)

Los malaventurados no lloran
Panda

Letras, Acordes y Tabs para Guitarra, Bajo y Ukulele

  • A                             E
    Se que está en algún lugar mejor
                  G#m                   C#m
    Donde no hay abuso, fuera de este mundo
    B           A                  E
    Quiero encontrar el medio para yo
                     G#m                    C#m   B
    Poder hablar con ella, poder decirle a ella que....
    
    
      A             E                   G#m
    Aquí todo está peor, que al igual que ella,
                     C#m
    mi voluntad también murió
       B           A                E
    Le quiero platicar que todo sale mal,
                   G#m                  C#m      B
    que yo la alcanzaría teniendo la oportunidad
    
    
    
  • G#                            D#
    Se que está en algún lugar mejor
                  Gm                   Cm
    Donde no hay abuso, fuera de este mundo
    A#     G#                      D#
    Quiero encontrar el medio para yo
                     Gm                    Cm    A#
    Poder hablar con ella, poder decirle a ella que
    
    
      G#             D#                   Gm
    Aquí todo está peor, que al igual que ella,
                     Cm
    mi voluntad también murió
       A#          G#                D#
    Le quiero platicar que todo sale mal,
                     Gm                  Cm      A#
    que yo la alcanzaría teniendo la oportunidad
    
    
    
  • Intro:FA-FA-DO-DO-MIm-MIm-LAm-SOL
    
    FA                           DO
    Se que esta en algun lugar mejor
                   MIm               LAm
    Donde no hay abuso, fuera de este mundo
    SOL     FA                    DO
    Quiero encontrar el medio para yo
                     MIm
    Poder hablar con ella
                    LAm   SOL  FA
    poder decirle a ella, que aqui
              DO                     MIm
    Todo esta peor, que al igual que ella
                    LAm
    Mi voluntad tambien murio
     SOL          FA                 DO
    Le quiero platicar que todo sale mal
                     MIm                  LAm
    Que yo la alcanzaria teniendo la oportunidad
    
  • intro: SOL#--RE#--SOL--DO--SIb
    
    SOL#                          RE#
    Se que esta en algun lugar mejor
                   SOL                 DOm  SIb
    Donde no hay abuso, fuera de este mundo Quiero
    SOL#                    RE#
    encontrar el medio para yo
                      SOL
    Poder hablar con ella
                    DO     SIb    SOL#
    poder decirle a ella, quee aaqui
              RE#                     SOL
    Todo esta peor, que al igual que ella
                    DO
    Mi voluntad tambien murio
       SIb        SOL#                 RE#
    Le quiero platicar que todo sale mal
                     SOL                  DO    SIb
    Que yo la alcanzaria teniendo la oportunidad
    
  •     G#  D#  Gm  Cm   A#
    e|--4---3---3---------------------|
    B|--4---4---3---4--4--3--3--------|
    G|--5---3---3----5-----3----------|
    D|--6---5---5-----5-----3---------|
    A|--6---6---5---------------------|
    E|--4---3---3---------------------|
    
    intro bajo
        G#            D#
    G|-----------------------------------|
    D|-----------------53----53----------|
    A|---3-----3------6--6-66--6---------|
    E|--4-6--44--64--4-------------------|
    
         Gm              Cm       A#
    G|-------------------------------------|el bajo hace esto
    D|----------------------35-------------|toa la cancion pero
    A|------35------35--33-6------88-6-----|al intermedio lo tok
    E|--33-6----33-6------------6----------|tokndo varias veces
    
  • intro 1 y 2
    e|--4---6---3---------------------|
    B|--4---6---3---4---4-2---2-------|
    G|--5---7---3----5-----3----------|
    D|--6---8---5-----6-----4---------|
    A|--6---8---5---------------------|
    E|--4---6---3---------------------|
    
    ----------------------|
    verso el 1 y 2
    Guitarra
    e|------------------------------3------------------|
    B|---------5----------7---------3-----4---4--2---2-|
    G|-------6---6------8---8-------3------5------3----|
    D|-------------6----------8-----5-------6------4---| x2
    A|------------------------------5------------------|
    E|----4-----------6-------------3------------------|
    
    Guitarra  coro y la parte donde va muteado
    e|----------------------------------------|
    B|----------------------------------------|
    G|------------888888----------666-444-----|
    D|----666666--888888--555555--666-444-----|x2
    A|----666666--666666--555555--444-222-----|
    E|----444444----------333333--------------|
    
    solo
    e|--4------------------------------------------|
    B|--4--------------------------------
  • ESTA VA CON TODO Y LETRA PUES LAS LETRAS ARRIBA Y SU ACOMPAÑAMIETO
    ABAJO DE EL.......
    
    
    
    
    INTRO 1
    e|--4---6---3---------------------|
    B|--4---6---3---4---4-2---2-------|
    G|--4---6---3----5-----3----------|
    D|--6---8---5-----6-----4---------|
    A|--6---8---5---------------------|
    E|--4---6---3---------------------|
    
    
    VERSO el 1 y 2
    Se que está en algún lugar mejor
    Donde no hay abuso, fuera de este mundo
    Quiero encontrar el medio para yo
    Poder hablar con ella, poder decirle a ella que
    Guitarra
    e|------------------------------3------------------|
    B|---------5----------7---------3-----4---4--2---2-|
    G|-------6---6------8---8-------3------5------3----|
    D|-------------6----------8-----5-------6------4---| x2
    A|------------------------------5------------------|
    E|----4-----------6-------------3------------------|
    
    CORO
    Aquí todo está peor, que al igual que ella,
    mi voluntad también murió
    Le quiero platicar que todo sale mal,
    que yo la alcanzaría teniendo la oportunidad
    
    Guitarra  coro y
  • B.Y. L.M.E.R*
    
    Este es mi primer aporte para la cuerda :)..
    
    Aquí esta el bajo para Malaventurados no Lloran lo corregí
    suena igual pero ahora esta mas facil para puntear sin
    quinciarte.
    Cualquier cosa dejo mi correo : snaker_1@hotmail.com
    
    Intro: (0:00)
    
    G|--------------------|----------------------|
    D|--------------------|----------------------|
    A|--------------------|--6--10-8-66--10-8----|
    E|—-4--8-6-44--8-6----|----------------------|
    
    G|--------------------|----------------------|
    D|--------------------|-----3-5----1-3-------|
    A|------3-5-------3-5-|--33--3--11--1--------|
    E|-3--6------3--6-----|----------------------|
                           Aquí seguro se van a confundir
                           pero tienen que hacerlo rapido
    
    OJO : LOS VERSOS I Y II SON IGUALES AL INTRO
    
    Verso I :(0:11)
    
    Coro: (0:33)
    
      "Que aquí!"
    G|-------------------------------------------|
    D|-------------------------------------------|
    A|-----------66666666----------3333-1111-----|
    E|—-44444444--------
  • La cuarta cuerda afinen en D (Re)
    
    Intro
    G |----------------|----------------|----------------|-----------------|
    D |----------------|---5-3----5-3---|----------------|---3-5-6---1-3-2-|
    A |---3-1----3-1---|-6-----66-----6-|---1-3----1-3---|-3-------1-------|
    D |-6-----66-----6-|----------------|-5-----55-----5-|-----------------|
    
    Verso 1
    G |----------------|----------------|----------------|-----------------|
    D |----------------|---5-3----5-3---|----------------|---3-5-6---1-3-2-|
    A |---3-1----3-1---|-6-----66-----6-|---1-3----1-3---|-3-------1-------|
    D |-6-----66-----6-|----------------|-5-----55-----5-|-----------------|
    
    G |----------------|----------------|----------------|-----------------|
    D |----------------|---5-3----5-3---|----------------|---3-5-6---1-3-2-|
    A |---3-1----3-1---|-6-----66-----6-|---1-3----1-3---|-3-------1-------|
    D |-6-----66-----6-|----------------|-5-----55-----5-|-----------------|
    
    Pre-coro
    G |--------------------------|--------------------------|
    D |--
  • +
    ¡Colabora con nosotros!
    Envíanos tu versión de esta canción

Letra de Los malaventurados no lloran
Se que está en algún lugar mejor
Donde no hay abuso, fuera de este mundo
Quiero encontrar el medio para yo
Poder hablar con ella, poder decirle a ella que
Aquí todo está peor, que al igual que ella,
mi voluntad también murió
Le quiero platicar que todo sale mal,
que yo la alcanzaría teniendo la oportunidad
Se que ella se siente mejor
Allá no hay suplicio, sería muy impulsivo
El utilizar un medio y llegar
A lo desconocido, sentirla a lado mío y
Decir que todo está peor, que al igual que ella,
mi esperanza se murió
La quiero abrazar, que todo sea igual
Mi vida ya es tan gris que el dolor jamás se marchará
Me debería recordar, debo yo recordar,
y sentirse mejor es mejor no creer en el amor,
así como le hago yo
La debería de odiar por dejarme aquí,
pero ella no escogió, soy un simple amante loco
yo he aprendido mi lección
Se que está en algún lugar mejor
Donde no hay abuso, fuera de este mundo
Quiero encontrar el medio para yo
Poder hablar con ella, poder decirle a ella que
Aquí todo está peor, que al igual que ella,
mi voluntad también murió
La quiero saludar, a su oido suspirar,
que mientras yo la extraño mi vida desvanece más




[Los malaventurados no lloran chords][Los malaventurados no lloran cifra]
© LaCuerda.net · aviso legal · privacidad · es · en · pt · contacto