Acordes de Guitarra » P »Panda » Nuestra Aflicción (Tab)

Nuestra Aflicción
Panda

Letras, Acordes y Tabs para Guitarra, Bajo y Ukulele

  • D#
    Cuánto
                  Gm
    cuánto se necesita
                Cm
    para ya resolver
    
    destruir
           G#
    este dilema
    
    que me tortura
           Fm
    en las noches
                 A#
    no me deja soñar
                    Fm
    amplifica mis temores
            G#   A#
    ciclo cabal....
    
  •  D#/F Gm Cm G# G5 Fm A# A#sus4
    [3----3--3--3-----1--1--1]
    [4----3--4--3-----1--3--4]ESTE ES EL CIRCULO ARMONICO K SE USARA EN
    [3----3--5--1-----1--3--3]CASI TODA LA CANCION.
    [1----5--5--1-----3--3--3]
    [1----5--3--3-----3--1--1]
    [1----3--3--4--3--1--1--1]
    
    VERSO:
    LETRA:
    D#/F                  Gm
    ¿CUÁNTO, CUANTO SE NECESITA?
                Cm                     G#
    PARA YA RESOLVER, DESTRUIR, ESTE DILEMA,
              G5       Fm                   A#
     QUE ME TORTURA EN LAS NOCHES, NO ME DEJA SOÑAR,
                    Fm             G#      A#
    AMPLIFICA MIS TEMORES, SICLO CABAL A-A-AL.
    D#/F                  Gm
    ENCERRÉ, Y ACABE CON MIS SUEÑOS,
    
  • D
    Cuánto
                  F#m
    cuánto se necesita
               Bm
    para ya resolver, destruir,
           G
    este dilema que me tortura
           Em
    en las noches,
                 A
    no me deja soñar,
                   Em
    amplifica mis temores,
            G   A
    ciclo cabal
    
     D
    me encerré
                         F#m
    
  •     D   A   Bm   G    Em  A   Em  G  A
       (E) (B)(C#m) (A) (F#m)(B)(F#m)(A)(B) -> con el capo
    eb|-4-|-2-|-4-|-5---|-2-|-2-|-2-|-5--2-|
    Bb|-5-|-4-|-5-|-5---|-2-|-4-|-2-|-5--4-|
    Gb|-4-|-4-|-6-|-2---|-2-|-4-|-2-|-2--4-|
    Db|-2-|-4-|-6-|-2---|-4-|-4-|-4-|-2--4-|
    Ab|-2-|-2-|-4-|-4---|-4-|-2-|-4-|-4--2-|
    Eb|-2-|-2-|-4-|-5-5-|-2-|-2-|-2-|-5--2-|
    
     D                      A                  Bm
    Cuanto... cuanto se necesita, para ya resolver,
                     G                         Em
    destruir este dilema, que me torura en las noches,
                  A                   Em                 G      A
    no me deja soñar, amplifica mis temores, simple o caval-a-a-al.
     D                       A                    Bm
    Encerre y acabe con mis sueños, y la llave arroje,
                     G                      Em
    para que los necesito, solo me causan angustia,
                      A                    Em               G      A
    
  • A#-----------------------2~------------------4~--------------------2~---
    F#-----------------------2~------------------4~--------------------2~---
    C#-----------------------4~------------------4~--------------------4~---
    G#-----------------------4~------------------2~--------------------4~---
    D#------------4----------2~----------------------------------------2~---
    
        simplocabal... aaal
    d#----------5~-------7~-|
    A#----------5~-------7~-|
    F#----------6~-------8~-|
    C#----------7~-------9~-|
    G#----------7~-------9~-|
    D#----------5~-------7~-|
    
    
      me encerre y acabe con mis sueños y la llave arroge para que los necesito
    d#|0~------------------------4~------------------4~--------------------5~
    A#|0~------------------------4~------------------5~--------------------5~
    F#|1~------------------------4~------------------6~--------------------6~
    C#|2~------------------------6~------------------6~--------------------7~
    
  • TZV...
    
    EL BAJO ENTRA AL MINUTO 0:31
    
    VERSO:
    G-------------------------------------------------------|
    D-------------------------------------------------------|
    A-666666666666--------------333333333333----------------|
    E--------------333333333333--------------444444444444---|
    
    G-------------------------------------------------------|
    D-------------------------------------------------------|
    A--------------111111111111-----------------------------|
    E-111111111111--------------111111111111-444444666666---|
    
    G-------------------------------------------------------|
    D-------------------------------------------------------|
    A-666666666666--------------333333333333----------------|
    E--------------333333333333--------------444444444444---|
    
    G-------------------------------------------------------|
    D-------------------------------------------------------|
    A--------------111111111111-----------------------------|
    E-111111111111--------------111111111111-444444666666---|
    
    CORO: 1:33
    
    G----------
  • transcrita n una armonica afinada en "do"
    -comentarios a mi msn.
    
    5  6
    Cuánto
    4  6   7 -5 5 4 5
    cuánto se necesita
    5-5  6  5  4  3
    para ya resolver
    4  -5 4
    destruir
    4-4  5 6 5
    este dilema
     6  -6 6 7 6
    que me tortura
    -5  6    5
    en las noches
     7 -7 7 6  -6 6
    no me deja soñar
    6 -6 7 6  -5  5  6  5
    amplifica mis temores
    5-6   6  5
    ciclo cabal
    
    5  5  6
    encerré
    5  6  7  -6  6   5  6
    ya acabé con mis sueños
    5 -6 7  6  -5  6
    y la llevé arrojé
    6-6   6   5  6 -6 76
    para qué los necesito
    6-6  7  7  6   -5  6  5
    sólo me causan angustia
    6  7 -7 8 7   -6  7
    me hace falta un plan
    6  7 -7 8  7  6  7 6
    me hace falta astucia
    -6  7  6  5
     y paz mental
    5  6  6  6 -6  7 6   5  6  6
    entiendo el rechazo del mundo
    6 -6 7  6  6 5
    tu repudio amor
    5  6    5
    no es igual
    5  -5 6 5 6 5
    si no conociera
    5  -5  6  6 7 6  -5 6 5
    talvés voltearia mi cara
    5  -5  6 6 76-5 6  7 5
    talvés sentiría lastima
    6  7    8    -7 7 8   7
    dicen que el amor mancha
    -6 7  8  7   6
     y ya me ensucié
    
    6  5 5  7  5 5 5
    parece, 
  • +
    ¡Colabora con nosotros!
    Envíanos tu versión de esta canción
  • Tutorial
    Como tocar Nuestra Afliccion en Guitarra Acustica (HD)
    Tutorial
    4:59

Letra de Nuestra Aflicción
Cuánto
cuánto se necesita
para ya resolver
destruir
este dilema
que me tortura
en las noches
no me deja soñar
amplifica mis temores
ciclo cabal....
pero encerré
ya acabé con mis sueños
y la llevé arrojé
para qué los necesito
sólo me causan angustia
me hace falta un plan
me hace falta astucia
y paz mental.......
entiendo el rechazo del mundo
tu repudio a amor
no es igual
si no conociera
talvés voltearia mi cara
talvés sentiría lastima
dicen que el amor mancha
y ya me ensucié
parece, si parece
oh no no
que lo mucho que ofrezco
no ofrecí tanto y por eso
poOor eso
me afronté
y dejaré de ser una carga
pues yo ya no aguanto más farsas
no lo puedo evitar
sentir que muere mi flama
cuando no estas...........
y así cierro un ciclo amor
necesito un favor
un poco más de medicina
pues nunca entendí la manera
para poder evitar
sentir que me rompen las piernas
cuando no estás........
y me haría feliz
que mi cantar
te haga sentir muy especial
que mi cantar
te pueda dar placer
y así juntos envejecer
más no pude hacerte feliz
ya decidí para ti
vamos a continuar
con alegría y felicidad
vamos a continuar
con nuestra aflicción
nuestra aflicción
oOoOH oOooH OoOooH oOoOH
-.-.-.-.-.-.-.-.-.-.-.-.-.-.-.-.-.-.-.-.-.-.-.-.-.-.-.-.-.-.-.-.-.-.-
LA CANCIÓN SE ESCUCHA BIEN CON ESOS TONOS PERO CUALQUIER COSA
AGANMELO SABER.... PEDRO_LIZ@LIVE.COM.MX
ESTA CANCION VA DEDICADA PARA TODOS LOS QUE LES GUSTE PANDA
Y PARA TODOS LOS CHIKOS Y CHIKAS DE BAJA CALIFORNIA
PRINCIPALMENTE AL BELLO PUERTO DE SAN FELIPE...
ATTE... PEDRO LIZARRAGA...
-.-.-.-.-.-.-.-.-.-.-.-.-.-.-.-.-.-.-.-.-.-.-.-.-.-.-.-.-.-.-.-.-.-.-




[Nuestra Aflicción chords][Nuestra Aflicción cifra]
© LaCuerda.net · aviso legal · privacidad · es · en · pt · contacto