Acordes de Guitarra » P »Panda » Muñeca (Tab)

Muñeca
Panda

Letras, Acordes y Tabs para Guitarra, Bajo y Ukulele

  • B            F#       G#m   E           B
     Todo lo que necesites solo yo lo puedo dar
             F#            G#m     E
    Todo lo que tu quieras yo lo tengo
     B            F#       G#m   E           B
    Necesitas un abrigo entre mis brazos estará
               F#      G#m     E
    Necesitas un camino yo lo pinto
    
    CORO:
    B    F#      G#m    E
    Mi muñeca esta llorando
    B    F#      G#m  E
    mi muñeca esta
    B    F#      G#m    E
    Mi muñeca esta llorando
    B    F#      G#m   E
    mi muñeca esta
    
    INTER DE B-F#-G#m-E X 2 Veces
    
  • C            G        Am    F           C
     Todo lo que necesites solo yo lo puedo dar
             G             Am     F
    todo lo que tu quieras yo lo tengo
    C          G        Am         F          C
     Necesitas un abrigo entre mis brazos estara
               G       Am     F
    necesitas un camino yo lo pinto
    C    G       Am    F   
    Mi muñeca esta llorando
    C    G       Am F
    mi muñeca esta
    C    G       Am    F   
    Mi muñeca esta llorando
    C    G       Am F
    mi muñeca esta
    C            G          Am    F             C
     Mi muñeca esta llorando pero yo no se porque
             G             Am      F
    sera que no me quiere, no me quiere
    
  • Author/Artist: Panda
    Title: Muñeca
    Album: Arroz con Leche
    Transcribed by: Edgar Aguirre
    Email: edgar_aguirre_7@hotmail.com
    Intro
    ----------------0-1-0---------------|
    -1---3-1--1---3-------3-1---1h3-1-0-|
    ---0--------0-----------------------|   x2
    ------------------------------------|
    -3----------------0-----------------|
    ----------3---------------1---------|
                                                                                  
    Guitarra ritmica
    -----------------------------------|
    -----------------------------------|
    -----------------------------------|	x4
    ---5-5-5-5---------1-1-1-1---------|
    ---3-3-3-3-5-5-5-5-0-0-0-0-3-3-3-3-|
    -----------3-3-3-3---------1-1-1-1-|
                                                                                  
    Guitarra 1
    -----------7-8----------|
    -5--6--8-----------8-6-5|
    ------------------------| 	x4
    ------------------------|
    ------------------------|
    ------------------------|
                                          
  • E|-------------------------------------------|
    B|-------2----------2--4--5--4--2--0---------|
    G|--4---------4------------------------------|
    D|-----4---4-----4---------------------------|
    A|-------------------------------------------|
    E|-------------------------------------------|
    
    
    E|---------------------------------------------------|
    B|--0h2--0------------2-----------2--4--5--4--2--0---|
    G|----------3--4------------4------------------------|
    D|-----------------4-----4-----4---------------------|
    A|---------------------------------------------------|
    E|---------------------------------------------------|
    
    E|------------------|
    B|-----0h2--0-----0-|
    G|-------------3----|
    D|------------------|
    A|------------------|
    
  • Author/Artist: Panda
    Title: Muñeca
    Album: Arroz con Leche
    Transcribed by: Rodrigo Quintanar
    Email: rodrigo_195@hotmail.com
    
    Intro
    el----------------------l-------------------------------|
    Bl------2------------2--l-4--5--4--2--0-----0h2---------|
    Gl-4----------4---------l--------------------------4--3-l  x2
    Dl----4---4-------4-----l-------------4-----4-----------|
    Al-2--------------------l-------------------------------|
    El------------2---------l----4-----------0--------------|
    
    Guitarra ritmica
    -----------------------------------|
    -----------------------------------|
    ---4-4-4-4-------------------------| x4
    ---4-4-4-4-4-4-4-4-6-6-6-6-2-2-2-2-|
    ---2-2-2-2-4-4-4-4-6-6-6-6-2-2-2-2-|
    -----------2-2-2-2-4-4-4-4-0-0-0-0-|
    
    Guitarra 1
    -----------6-7---------|
    -4--5--6-------6—5--4--|
    -----------------------| x4
    -----------------------|
    -----------------------|
    -----------------------|
    
    Guitarra 2
    -------------------------------|
    -0--2--0--2---4-5-4-2-0—2------|
    ---------------------------4-
  • B  F#  G#m  E    x2
    
    
    
    B            F#       G#m   E           B
     Todo lo que necesites solo yo lo puedo dar
             F#            G#m     E
    Todo lo que tu quieras yo lo tengo
     B            F#       G#m   E           B
    Necesitas un abrigo entre mis brazos estará
               F#      G#m     E
    Necesitas un camino yo lo pinto
    
    CORO:
    B    F#      G#m    E
    Mi muñeca esta llorando
    B    F#      G#m  E
    mi muñeca esta
    B    F#      G#m    E
    Mi muñeca esta llorando
    
  • G----------------------------------
    D----------------------------------
    A--2-2-2-2-------------------------  x17
    E----------2-2-2-2-4-4-4-4-0-0-0-0-
    
    
    “Pero te pido que me mates...”
    G----------------------------
    D----------------------------
    A--2-2-2-2-------------------
    E----------2-2-2-2-4-4-4-4-0-
    
    
    “Mi muñeca está llorando...”
    G----------------------------------
    D----------------------------------
    A--4-4-4-4-------------------------  x4
    E----------4-4-4-4-6-6-6-6-2-2-2-2-
    
    
    G------------------------------------
    D------------------------------------
    A--4-4-4-4-------------------------4-
    E----------4-4-4-4-6-6-6-6-2-2-2-2---
    
    
    G----------------------------------
    D----------------------------------
    A--4-4-4-4-------------------------  x8
    E----------4-4-4-4-6-6-6-6-2-2-2-2-
    
    
    “Sabes que fue...”
    G----------------------------------
    D----------------------------------
    A--4-4-4-4-------------------------  x8
    E----------4-4-4-4-2-2-2-2-2-2-2-2-
    
    
    G----
    D----
    A--4-
    E----
    
    
    Comentario
  • +
    ¡Colabora con nosotros!
    Envíanos tu versión de esta canción

Letra de Muñeca
Todo lo que necesites solo yo lo puedo dar
Todo lo que tu quieras yo lo tengo
Necesitas un abrigo entre mis brazos estará
Necesitas un camino yo lo pinto
Mi muñeca esta llorando
mi muñeca esta
Mi muñeca esta llorando
mi muñeca esta
INTER DE B-F#-G#m-E X 2 Veces
Mi muñeca esta llorando pero yo no se porque
sera que no me quiere, no me quiere
necesitas un amigo, aqui yo mero estare
pero te pido que me mates, matame
LA CANCIÓN SUBE UNA NOTA MÁS ARRIBA
ASÍ QUEDARIA EL CORO:
Mi muñeca esta llorando
mi muñeca esta
Mi muñeca esta llorando
mi muñeca esta
Corte de la canción y el solo:
Mi muñeca esta llorando
mi muñeca esta
Mi muñeca esta llorando
mi muñeca esta
Sabes que fue? talvez porque?
ella lloro (nadie la hizo llorar)
Yo la quiero, mas no quiero
verla feliz (nadie la hizo llorar)
(nadie la hizo llorar)
nadie la hizo llorar
nadie la hizo lloraaaar..




[Muñeca chords][Muñeca cifra]
© LaCuerda.net · aviso legal · privacidad · es · en · pt · contacto